Spencer Davis Group - Keep On Running Chords & Tabs

 

Keep On Running Chords & Tabs

Spencer Davis Group Chords & Tabs

Version: 1 Type: Bass Tab 0 ratings
1 star 2 stars 3 stars 4 stars 5 stars
comments

Keep On Running Bass Tab

   
Keep On Running
As playered by The Spencer Davis Group
TablEdited by Jan.Bjorklund
Tuning : E A D G 	Time Signature: 4/4

  |       |       |       |        >3|       |       |       |         
||---------------------------------|---------------------------------||
|*7-------7-------5---7---5--------|---------------------------------*|
||------------7---------------7----|-5-------5-------3---5---3-------||
||---------------------------------|-------------5---------------5---||

  |       |       |       |          |       |       |       |         
|----------------------------------|----------------------------------|
|----------------------------------|-------------------------7--------|
|-7-------7-------7-------7---7----|-----7---7-------7h--9-------9----|
|----------------------------------|----------------------------------|

  |       |       |       |          |       |       |       |         
||---------------------------------|----------------------------------|
|*7-----------------------7--------|-7-----------------------7--------|
||----------------7h--9-------9----|-----------------7h--9-------9----|
||---------------------------------|----------------------------------|

  |       |       |       |          |       |       |       |         
|----------------------------------|----------------------------------|
|----------------------------------|----------------------------------|
|-7-----------------------7--------|-7-----------------------7--------|
|-----------------7h--9-------9----|-----------------7h--9-------9----|

  |       |       |       |          |       |       |       |         
|----------------------------------|----------------------------------|
|----------------------------------|----------------------------------|
|-9-----------------------7--------|-5-----------------------5--------|
|-----------------7h--9-------7----|-----------------5h--7-------7----|
[ Tab from: http://www.guitartabs.cc/tabs/s/spencer_davis_group/keep_on_running_btab.html ]
  |       |       |       |          |       |       |       |         
|----------------------------------|---------------------------------||
|-7-----------------------7--------|---------------------------------||
|-----------------7h--9-------9----|-5-----------------------5-------||
|----------------------------------|-----------------5h--7-------7---||

>1|       |       |       |          |       |       |       |         
|----------------------------------|---------------------------------||
|----------------------------------|-------------------------7-------*|
|-7-------7-------7-------7---7----|-----7---7-------7h--9-------9---||
|----------------------------------|---------------------------------||

>2|       |       |       |          |       |       |       |         
|----------------------------------|----------------------------------|
|----------------------------------|----------------------------------|
|-7-------7-------7-------7---7----|-----7---7-------7---8-------9----|
|----------------------------------|----------------------------------|

  |       |       |       |          |       |       |       |         
||---------------------------------|----------------------------------|
|*---------------------------------|----------------------------------|
||------------9--------------------|-9-----------9--------------------|
||----------------9---9-------9----|-----------------9---9-------9----|

  |       |       |       |        >1|       |       |       |         
|---------------------------------||---------------------------------||
|---------------------------------||---------------------------------*|
|-7-----------7-------------------||-7-----------7---7---8-------9---||
|-----------------7---7-------7---||---------------------------------||

>2|       |       |       |          |       |       |       |         
|----------------------------------|----------------------------------|
|-------------------------7--------|----------------------------------|
|-7-------7-------7h--9-------9----|----------------------------------|
|----------------------------------|----------------------------------|

  |       |       |       |          |       |       |       |         
|----------------------------------|----------------------------------|
|----------------------------------|----------------------------------|
|----------------------------------|----------------------------------|
|----------------------------------|----------------------------------|


Created with TablEdit http://www.tabledit.com/

Comments