Specials - Too Much Too Young Chords & Tabs

 

Too Much Too Young Chords & Tabs

Specials Chords & Tabs

Version: 1 Type: Bass Tab 0 ratings
1 star 2 stars 3 stars 4 stars 5 stars
comments

Too Much Too Young Bass Tab

-------------------------------------------------------------------------------
			     too much too young - the specials
-------------------------------------------------------------------------------

Tabbed By : jude
e-mail: bouquethead@hotmail.com

Tuning:eadg
main riff"you've done too much much too young
come in on the off beat
[ Tab from: http://www.guitartabs.cc/tabs/s/specials/too_much_too_young_btab.html ]
G|------------------|-----------------|-----------4---|----------------------|
D|----555-----------|-------------3-2-|------47--5-7--|-7-7-7754-------------|
A|--5-----57333335--|-5-------523-----|--5------5---7-|---------7------------|
E|------------------|---3-3-3---------|---------------|----------------------|

middle section

G|--7-6-5-6-|
D|----------|
A|-5-4-3-4--|
E|----------|

solo and end part

G|---------------|
D|---------------|
A|-55555---5555--|
E|------5------5-|

repeat parts as necessary.
Comments