Specials - Nite Klub Chords & Tabs

 

Nite Klub Chords & Tabs

Specials Chords & Tabs

Version: 1 Type: Bass Tab 0 ratings
1 star 2 stars 3 stars 4 stars 5 stars
comments

Nite Klub Bass Tab

Here it is "Night Club" by "The Specials"
"night club"
By "The Specials"
>From the magnificent ERIC!

One Verse

G----------------------------7-7-----------------
D------------------------------------------------
A-7---0-----7---5---5---7----------5-----------7-
E---7---5/7---7---7---7--0-0-----7---7--0--5/7---

G------------------|-------12---11---7---8---
D------------------|-------------------------
A---5---5---7------|----------9----6---6-----
E-7---7---7---0----|-6/10--------------------

G-----------------
D-----4---5---6---
A-----------------
E-0-2---3---4-----

And yet another verse
[ Tab from: http://www.guitartabs.cc/tabs/s/specials/nite_klub_btab.html ]
G-------------------------------
D-7-7-------7-----4-4-5-5-6-6---
A-----9-7-9---5-5---------------
E-------------------------------

G-------------------------------
D-7-7-------7-------------------
A-----9-7-9---5-5-4-4-5-5-6-6---
E-------------------------------

G---------------------------------
D-7-7-------7-----4-4-5-5-6-6-7-7-
A-----9-7-9---5-5-----------------
E---------------------------------

and don't forget this verse!

G---------------------------------
D---------------------------------
A-5-3-3-2-2-1-0-----5---6-7-------
E---------------7-7---7-----------

If you think this is wrong then you can complain to me,
here's my E-mail: wallenda@aracnet.com
Comments