Specials - Ghost Town Chords & Tabs

 

Ghost Town Chords & Tabs

Specials Chords & Tabs

Version: 1 Type: Bass Tab 0 ratings
1 star 2 stars 3 stars 4 stars 5 stars
comments

Ghost Town Bass Tab

Song: Ghost Town
Artist: The Specials
Tabbed by: Iisaw Kookostawis (joannie@sprocket.viathe.net)

definately listen to a recording for the timing on this one. The general
order of play for these riffs is
riff 1
riff 2 (x2)
riff 3 (x2)
riff 1 
riff 4
riff 2 (x2)
riff 3 (x2)
outro (see 2)

riff 1 (intro and before deviation)
G:-----------------------------------------------------------------------
D:-----------------------------------------------------------------------
A:-33333333555555556666[10][10][10][10][13][13][13][13][15][15][15][15]--
E:-----------------------------------------------------------------------
[ Tab from: http://www.guitartabs.cc/tabs/s/specials/ghost_town_btab.html ]
riff 2: verses ("this town is 'comin' like a ghost town...")
G:-----------------------------|----------------------------------------
D:------------------5----------|--------------------5-------555555------
A:---3-6---3-5---3-6----6333---|-------3-6---3-5---3-6---3--------------
E:-----------------------------|-3-6------------------------------------
(note: the outro is a switch of these two parts above)
          
G:-----------------------------|----------------------------------------
D:------------------5----------|----------------------------------------
A:---3-6---3-5---3-6----6333---|-------333---33-3-3---222---22-2-2----
E:-----------------------------|-3---------3--------3-----0--------0--

riff 3: bridge (singing -no words)
G:-------------------------------------------------------------------------
D:------5---------5---------5---------5---------5---------5---------5------
A:-3---6-6---2---6-6---1---6-6---0---6-6---2---6-6---2---6-6---3---6-6---3-
E:-------------------------------------------------------------------------

riff 4: deviation ("do you remember the good ol' days of the ghost town...")
G:----------------------------------------------------------
D:----------------------------------1-2-4-2-1---------------
A:-4---4-4---4---4-4--------1-2-4-------------4-------------
E:--------------------2---2---------------------------------

G:--------------------------------------------------------
D:------------------------4-2-----------5-----------------
A:-4---4-4---4---4-4----------4-2-------------------------
E:--------------------2-----------2-----------------------

Comments