Specials - A Message To You Rudi Chords & Tabs

 

A Message To You Rudi Chords & Tabs

Specials Chords & Tabs

Version: 3 Type: Bass Tab 0 ratings
1 star 2 stars 3 stars 4 stars 5 stars
comments

A Message To You Rudi Bass Tab

A MESSAGE TO YOU RUDY
The Specials

just an adjustment to the other tab..

intro + verse + outro
[ Tab from: http://www.guitartabs.cc/tabs/s/specials/a_message_to_you_rudi_btab_ver_3.html ]
G||-----------------------------------------------------|| 
D||*-------2--------------------------------------------||   
A||*--3-------------------------------------------------||    
E||------------------3-----------1----------1--------3--|| 
 

chorus

G||-----------------------------------------------------|| 
D||*----------------------------------------------------||   
A||*--3-333---------------------------------------------||    
E||------------------3-----------1----------1--------3--|| 
 
Comments