Special Eds - Above And Beyond Chords & Tabs

 

Above And Beyond Chords & Tabs

Special Eds Chords & Tabs

Version: 1 Type: Tab 0 ratings
1 star 2 stars 3 stars 4 stars 5 stars
comments

Above And Beyond Tab

E -------------------------------------------------
B -------------------------------------------------
G ----7----------------------5--------------------   2x
D ----7-----------5----------5--------7----------
A ----5-----------5----------3--------7----------         
E ----------------3------------------ 5----------

E ------------------------------------------------
B ------------------------------------------------
G ----7----------------------5--------------------   slow it down till after
D ----7-----------5----------5--------7----------    “until it gets light”
A ----5-----------5----------3--------7----------                                                                               
E ----------------3------------------ 5----------

 

E ----------------------------------------------
B ----------------------------------------------
G ----7--7---------------------5-5--------------  2x
D ----7--7---------5-5-5-------5-5-----7-------
A ----5--5---------5-5-5-------3-3-----7-------                                                                              
E -----------------3-3-3---------------5-------

 
[ Tab from: http://www.guitartabs.cc/tabs/s/special_eds/above_and_beyond_tab.html ]
E -------------------------------------------------
B -------------------------------------------------
G ----7----------------------5--------------------   2x
D ----7-----------5----------5--------7----------
A ----5-----------5----------3--------7----------                                                                               
E ----------------3------------------ 5----------

 

E -------------------------------------------------
B -------------------------------------------------
G ----7----------------------5--------------------   1x, slow
D ----7-----------5----------5--------7----------
A ----5-----------5----------3--------7----------                                                                               
E ----------------3------------------ 5----------

 

E -------------------------------------------------
B -------------------------------------------------
G ----7----------------------5--------------------   2x, soft
D ----7-----------5----------5--------7----------
A ----5-----------5----------3--------7----------                                                                               
E ----------------3------------------ 5----------
Comments