Speaker Fone - Haven Paradise Chords & Tabs

 

Haven Paradise Chords & Tabs

Speaker Fone Chords & Tabs

Version: 1 Type: Tab 0 ratings
1 star 2 stars 3 stars 4 stars 5 stars
comments

Haven Paradise Tab

   
haven paradise
:detour


this is pretty much it. the solo is just improvised on the 12th fret penitonic scale. lessen to the recording to "fine tune" your playing of the song
-DEATHrose


intro/outro:
E ----------------------------------------
B ----------------------------------------
G ----------------------------------------
D ---------------0h3--3--3p0----0---------
A -5--5--5p0--3---------------5-----------
E ----------------------------------------
[ Tab from: http://www.guitartabs.cc/tabs/s/speaker_fone/haven_paradise_tab.html ]
E ----------------------------------------
B ----------------------------------------
G ----------------------------------------
D ---------------0h3--3--3p0--------------
A -5--5--5p0--3---------------5p3p0h3h5---
E ----------------------------------------


chorus:

      Dmin        Amin    C            Amin
  
its a haven its a heaven  whatever you say

Dmin         Amin          C     Amin

people goto  theres almost every day

  E             Amin      E             Amin         

escape from the world and hide from the truth

  E           Amin        E         Amin

  When you're here you're in you're youth




Verse:

Dmin	Amin	C	Amin










Comments