Sparta - Splinters Chords & Tabs

 

Splinters Chords & Tabs

Sparta Chords & Tabs

Version: 1 Type: Tab 0 ratings
1 star 2 stars 3 stars 4 stars 5 stars
comments

Splinters Tab

Splinters -by- Sparta
Album: Porcelain
Guitarists: Jim Ward(gu1) Paul Hinijos (gu2)


Guitar 1 -  Jim -
Standard Tuning

Intro

e-----------------------------------------|
b-------------8---------------------------|
g-999999-9----x----5555555-44444----------|
d-999999-9----7----5555555-44444---2~~~---|
a-777777-7----5----3333333-22222---2~~~---|
E-000000-0-------------------------0~~~---|
Pm......

Verse

e-0------------------------------------------|
b-3---------------------333333-33333---------|
g-2---------------------000000-22222-22222---|
d-2--2~~~---------22222-xxxxxx-00000-22222---|
a-0--2~~~---(x2)--22222-222222-------00000---|
E----0~~~---------00000-333333---------------|

Chorus

e---------------------|
b---------------------|
g-----9999999999999---|
d-222-xxxxxxxxxxxxx---|
a-222-7777777777777---|
E-000-----------------|

Post Chorus

e--------------------------|
b--------------------------|
g-1515151515-99999999999---|
d-x-x-x-x-x--xxxxxxxxxxx---|
a-1313131313-77777777777---|
E--------------------------|

Guitar break

e------------------------------------------------|
b------------------------------------------------|
g-9999999-----9999999-----9999999-----9999999----|
d-xxxxxxx-----xxxxxxx-----xxxxxxx-----xxxxxxx----|
a-7777777-----7777777-----7777777-----7777777----|
E-0000000-----0000000-----0000000-----0000000----|

Outro

e----------------------------------------------------------------|
b----------------------------------------------------------------|
g-------9999999999-----------------------------------------------|
d-22222-xxxxxxxxxx (x2)--22222----22222---22222---22222---2222---|
a-22222-7777777777-------22222----22222---22222---22222---2222---|
E-00000------------------00000----00000---00000---00000---0000---|

Guitar 2 - Paul -
Standard Tuning

Intro/verses
[ Tab from: http://www.guitartabs.cc/tabs/s/sparta/splinters_tab.html ]
e------------10---10--------------7----7-----|
b-----8-7-----------------8-7----------------|
g-7-9-----9----9------7-9------9----9--------|
d--------------------------------------------|
a--------------------------------------------|
E--------------------------------------------|

Intro cont.

e-12-12-12-20-20-20-20-17-17-17-17-15-15-15-12-12-12---|
b------------------------------------------------------|
g------------------------------------------------------|
d------------------------------------------------------|
a------------------------------------------------------|
E------------------------------------------------------|

Chorus

e-------------------------------|
b-------------88888-------------|
g------999999-xxxxx-5555-4444---|
d-8888-999999-77777-5555-4444---|
a-xxxx-777777-55555-3333-2222---|
E-6666--------------------------|

Post Chorus

e-----12------15-14----17-12---15-12--14-12-------15----14----12-------------|
b--12----12---------12------12------12------12-12----12----12----------------|
g----------------------------------------------------------------9999-7777---|
d----------------------------------------------------------------xxxx-xxxx---|
a----------------------------------------------------------------7777-5555---|
E----------------------------------------------------------------------------|

Guitar Break

e--------------------------------------------|
b--------------------------------------------|
g-999999-----212121-999999-----99999-77777---|
d-xxxxxx-9-9-x-x-x--xxxxxx-9-9-xxxxx-xxxxx---|
a-777777-7-7-191919-777777-7-7-77777-55555---|
E--------------------------------------------|
PM       . .               . .

Outro

e-------------------------------------|
b-------------------------------------|
g-99999----99999----99999----99999----|
d-88888----88888----88888----88888----|
a-77777----77777----77777----77777----|
E-------------------------------------|
Comments