Sparta - Sans Cosm Chords & Tabs

 

Sans Cosm Chords & Tabs

Sparta Chords & Tabs

Version: 1 Type: Bass Tab 0 ratings
1 star 2 stars 3 stars 4 stars 5 stars
comments

Sans Cosm Bass Tab

Sparta
Sans cosm
Tabbed by mavrick45
Mavrick_45@sugarray.com

Intro- guitar and drums only


Part one
G----------------------------------------------------------]
D-----------------------------------------------0-0-0-0----]  X6
A-----------------------00000000---3-3-3-3-----------------]
E---000000000000000----------------------------------------]
[ Tab from: http://www.guitartabs.cc/tabs/s/sparta/sans_cosm_btab.html ]
Part two
G-----------------------------------------------------------------------]
D-----------------------------------------------------------------------]  X2
A------------------------------------3-3-3-3-3-3-3-3/1212121212121212---]
E---00-12-00-12-00-12-00-12-00-12---------------------------------------]


Part three
G-----------------]
D--------------0--]  X2
A------0---3------]
E---0-------------]

Part one  X4
Part two  X4

Part four
G--------------------------------------------------------------]
D--------------------------------------------------------------]    X5
A---2-2-2-2--------------4-4-4-4---6-6-6-6-------7-------------]
E--------------0-0-0-0----------------------------(play the 7 on the last time only)

Rest
Part three  X3
Part one    X2
Part two    X4

Ending
G------]
D------]
A------]
E---0--]
Comments