Sparta - Red Alibi Chords & Tabs

 

Red Alibi Chords & Tabs

Sparta Chords & Tabs

Version: 2 Type: Tab 0 ratings
1 star 2 stars 3 stars 4 stars 5 stars
comments

Red Alibi Tab

   
Sparta-Red Alibi

 Intro/Chorus
e|----------------------|----------------------|
B|----------------------|----------------------|
G|----------------------|----------------------|
D|-4-4-xx-4-4-x44/7/4p0-|-4-4-xx-4-4-xx-77/999-|
A|-----xx-----x---------|-----xx-----xx--------|
E|-3-3-xx-3-3-x3--------|-5-5-xx-5-5-xx-55/777-|

 Octaves that go over the intro
e|-----------------------|
B|-----------------------|
G|-9-7-14--16-18-21--44--|
D|-----------------------|
A|-7-5-12--14-16-19--33--|
E|-----------------------|
[ Tab from: http://www.guitartabs.cc/tabs/s/sparta/red_alibi_tab_ver_2.html ]
 Verse gtr 1 
e|---------------------------------|
B|---------------------------------|
G|---0---0---0---0---0---0---0--0--|
D|--9-9-9-9-9-9-7-7-0-0-0-0-0--0-0-|
A|-7---7---9---5---0---0---2--2----|
E|---------------------------------|
                    
 Verse gtr 2       
e|-0000000000000000----------------|
B|-0000000000000000----------------|
G|-7777777799999999 ---------------|
D|-----------------777777777777777-|
A|-----------------000000000000000-|
E|---------------------------------|

 Pre-Chorus
e|--------------|-----------|
B|-----23-------|-----------|
G|-----32-11/12-|-2-2-22-22-|
D|-2-2-00---/---|-2-2-------|
A|-2-2-----9/10-|-0-0-22-22-|
E|-0-0-2--------|-----------|

 Middle  gtr 1 soft pt  Middle loud pt
e|----------|----------|-0---------------|
B|----------|----------|-0---------------|
G|----------|----------|-7----11/12------|
D|-44444444-|-22220000-|-7------/---7----|
A|----------|----------|-------9/10-0----|
E|----------|----------|-----------------|
                                
 Middle gtr 2 soft pt   Middle loud pt
e|-10------------------|-10---15/14-12---|
B|-10------------------|-10---17/15-14---|
G|---------------------|-----------------|
D|---------------------|-----------------|
A|---------------------|-----------------|
E|---------------------|-----------------|
Comments