Sparta - Red Alibi Chords & Tabs

 

Red Alibi Chords & Tabs

Sparta Chords & Tabs

Version: 1 Type: Bass Tab 0 ratings
1 star 2 stars 3 stars 4 stars 5 stars
comments

Red Alibi Bass Tab

G|--------------------------|                   |-----|
D|--------------------------|                   |-----|
A|--------------------------|                   |-----|
E|-33-33-/7---55-55-/10-----| Intro/Chorus (4x) |-33~-|

G|--------------------|
D|--------------------|
A|--------5-----------|
E|-0-0--2----5-5--7-7-| Verse Pt. 1 (4x)
[ Tab from: http://www.guitartabs.cc/tabs/s/sparta/red_alibi_btab.html ]
G|--------------------|
D|--------------------|
A|--------55----------|
E|-0-00-2---5-55-7-77-| Verse Pt. 2 (2x)

Chorus (4x)
Verse Pt. 1 (4x)
Verse Pt. 2 (2x)

G|--------------------------|
D|--------------------------|
A|--------------5-5--5-5--5-|
E|-2-2--2-2--2--------------| Bridge Pt. 1 (2x)

G|----------------------------------|
D|----------------------------------|
A|-------------5555-----------------|
E|-000000002222----5555555577777777-| Bridge Pt. 2 (4x)

Chorus (4x)

E|-3~-|
Comments