Sparta - Lines In Sand Chords & Tabs

 

Lines In Sand Chords & Tabs

Sparta Chords & Tabs

Version: 1 Type: Tab 0 ratings
1 star 2 stars 3 stars 4 stars 5 stars
comments

Lines In Sand Tab

Sparta - Lines in Sand
Porcelain
Tabbed by jacob shaputis,
please send corrections or comments to deadwilly327@yahoo.com

Intro/Verse
with some sort of effect Drop D
G ----------2-------------------2-------------------------|
D ----2--4-----4--2h4-----2--4-----4----------------------|
A ------------------------------------4/------------------|
D -0-------------------0----------------------------------|

Guitar 2 Enters
E --------------------------------------------------------|
B --------------------------------------------------------|
G -7-----9-----4------------------------------------------|
D -x-x9--x-x9--x-x9--4-4-4-2-2-2-2-2----------------------|
A -5-----7-----2-----x-x-x-x-x-x-x-x----------------------|
D -------------------4-4-4-2-2-2-2-2----------------------|
[ Tab from: http://www.guitartabs.cc/tabs/s/sparta/lines_in_sand_tab.html ]
Chorus
Guitar 1 (not the exact picking pattern but easy to figure out)
E --14-14-4-12-12-12-10-10-10-----------------------------------------------|
B ----------------------------10-10-10-12-12-10-10-5-5-5-7-7-7-3-3-3-3-3-3--|
G --------------------------------------------------------------------------|
D --------------------------------------------------------------------------|
A --------------------------------------------------------------------------|
D --------------------------------------------------------------------------|

Guitar 2 in the background
E ---------------------------------------------------------|
B ---------------------------------------------------------|
G ---------------------------------------------------------|
D -5--5-5---5--5-5---0--0-0---0--0-0-----------------------|
A -5--5-5---5--5-5---0--0-0---0--0-0-----------------------|
D -5--5-5---5--5-5---0--0-0---0--0-0-----------------------|

Outro
Guitar 2 with lil fills from the other guitar
E ---------------------------------------------------------|
B ---------------------------------------------------------|
G ---------------------------------------------------------|
D -7-7-7-7-7-7-7-5-5-5-5-5-5-0-0-0-0-0-0-0-0-0-0-0---------|
A -7-7-7-7-7-7-7-5-5-5-5-5-5-0-0-0-0-0-0-0-0-0-0-0---------|
D -7-7-7-7-7-7-7-5-5-5-5-5-5-0-0-0-0-0-0-0-0-0-0-0---------|
Comments