Sparta - Light Burns Clear Chords & Tabs

 

Light Burns Clear Chords & Tabs

Sparta Chords & Tabs

Version: 1 Type: Tab 0 ratings
1 star 2 stars 3 stars 4 stars 5 stars
comments

Light Burns Clear Tab

e[--------------------14-14-14-12-----------]
b[--15-15-15-14-14-14-------------14-12-----]
g[------------------------------------------]
d[------------------------------------------]
a[------------------------------------------]
D[------------------------------------------]

e[---------------------------------------]
b[-15-15-15-14-14-14-12-12-12-10-10-10---]
g[---------------------------------------]
d[---------------------------------------]
a[---------------------------------------]
D[---------------------------------------]

e[------------------------------------]
b[------------------------------------]
g[-9-999-7-777-4-444-/14-14-14--------]
d[-x-xxx-x-xxx-x-xxx------------------]
a[-7-777-5-555-2-222-/12-12-12--------]
D[------------------------------------]
[ Tab from: http://www.guitartabs.cc/tabs/s/sparta/light_burns_clear_tab.html ]
e[---------------------------------------------------------]
b[---------------------------------------------------------]
g[--9-9999-9999-9999-99-11-11111111-11111111-11111111-1111-]
d[--x-xxxx-xxxx-xxxx-xx-x--x-x-x-x--x-x-x-x--x-x-x-x--x-x--]
a[--7-7777-7777-7777-77-9--9-9-9-9--9-9-9-9--9-9-9-9--9-9--]
D[---------------------------------------------------------]

e[------------------------------------------------]
b[------------------------------------------------]
g[-9-9999-77-66-7--111111111111/-14---------------]
d[-x-xxxx-xx-xx-x--x-x-x-x-x-x---x--(hold)--------]
a[-7-7777-55-44-9--9-9-9-9-9-9-/-12---------------]
D[------------------------------------------------]

e[-----------------------------------]
b[-----------------------------------]
g[-----------------------------------]
d[-0-2-4--------------------0-2-4----]
a[-0-2-4-4-4444-2-222-0-000-0-2-4----]
D[-0-2-4--------------------0-2-4----]

and outro

e[---------------------------------------]
b[---------------------------------------]
g[---------------------------------------]
d[-4-444-5-5555-0---9---9---9------------]
a[-4-444-5-5555-0---7-0-7-0-7-0----------]
D[-4-444-5-5555-0-----0---0---0----------]
Comments