Sparta - Cut Your Ribbon Chords & Tabs

 

Cut Your Ribbon Chords & Tabs

Sparta Chords & Tabs

Version: 1 Type: Bass Tab 0 ratings
1 star 2 stars 3 stars 4 stars 5 stars
comments

Cut Your Ribbon Bass Tab

Sparta
Cut your ribbon
Tabbed by mavrick45
Mavrick_45@sugarray.com

Guitar intro

Part one
G-----------------------------------------------------------------------------
D-----------------------------------------------------------------------------  X4
A-7-777---5-555---2-222---3-333----777---99---7---99---777---99---799--------
E-----------------------------------------------------------------------------
[ Tab from: http://www.guitartabs.cc/tabs/s/sparta/cut_your_ribbon_btab.html ]
Part two
G-----------------4-4-4-4---2-2-2---42424---------
D-------------------------------------------------   X2
A--------6*---------------------------------------
E---0*--------------------------------------------

Rest
Part one   X4
Part two   X4

Part three
G----------------------
D----------------------    X4
A---2*---3---0*--------
E-------------------3*-

Part four
G---------------------------
D---------------------------   X4
A---777---99---7---99-------
E---------------------------


Part two   X2
Part four   X4


Ending
G------
D------
A---7*-
E------


* = hold note
Comments