Sparta - Collapse Chords & Tabs

 

Collapse Chords & Tabs

Sparta Chords & Tabs

Version: 2 Type: Tab 0 ratings
1 star 2 stars 3 stars 4 stars 5 stars
comments

Collapse Tab

Collapse -by- Sparta...this is 100% correct

Intro - Guitar 2 (pual) -clean-

1-9-9-9-9-9-9-9-(only once)-----------------------------9--9---|
2--------------------------------------------------------------|
3----------------7-7-7-6-6-2-2-4-4-2---7-7-7-6-6-2-2--9--9-----|
4--------------------------------------------------------------|
5--------------------------------------------------------------|
6--------------------------------------------------------------|

Keep repeting this riff through all the verses and play the repeted 9's on the E string 
the intro into the riff in the beginning..listen and you will know

Chorus

Guitar 1 - Jim -distorted-

1---------------------------------------|
2---------------------------------------|
3-6-7--14--6-7--16-14--6-7--19--6-7-----|
4-X-X--X---X-X--X--X---X-X--X---X-X-2---|  (x2)
5-4-5--12--4-5--14-12--4-5--17--4-5-2---|
6-----------------------------------0---|

Guitar 2 - Paul -distorted-

1--------------------------|
2--------------------------|
3-11-9--7--6--11-9--6------|
4-X--X--X--X--X--X--X--7---|  (x2)
5-9--7--5--4--9--7--4--7---|
6----------------------5---|

Interlude - Guitar 2 - Paul -clean sound-
[ Tab from: http://www.guitartabs.cc/tabs/s/sparta/collapse_tab_ver_2.html ]
1-14--14-12---12---14--14-12---12---14--14-12--12-10-12-10-9-12-9-12-9---|
2------------------------------------------------------------------------|
3---12------12--12---12-----12--12---12-----12--12-----------------------|
4------------------------------------------------------------------------|
5------------------------------------------------------------------------|
6------------------------------------------------------------------------|

2nd verse - Guitar 2 (paul) plays riff again

in the back ground an accoustic guitar plays these chords.. when they play live jim 
them with his electric clean.

1-0---------|
2-3-3---3---|
3-2-4-4-4---|
4-0-4-5-4---|
5---2-5-2---|
6-----3-----|

Bridge

Guitar 1 - Jim -  plays those chords above distorted in the same way

Guitar 2 - Paul - Distorted

1---------------------------------------9--9--------------------9-9-9-9-9-9---|
2-----------------------------------------------------------------------------|
3-7-7-7-6-6-2-2-4-4-2---7-7-7-6-6-2-2--9--9--7-7-7-6-6-2-2-4-4-2--------------|
4-----------------------------------------------------------------------------|
5-----------------------------------------------------------------------------|
6-----------------------------------------------------------------------------|

Play Chorus again twice

Intro thing into the Next bridge/outro -Guitar 2 - Paul- distorted and vibrato

1-14--14-12---12---14--14-12---12---14--14-12--12-12-12-12-12-12-12-12----|
2-------------------------------------------------------------------------|
3-------------------------------------------------------------------------|
4-------------------------------------------------------------------------|
5-------------------------------------------------------------------------|
6-------------------------------------------------------------------------|

Play Bridge again, and thats it

Awsome song...
Comments