Sparta - Collapse Chords & Tabs

 

Collapse Chords & Tabs

Sparta Chords & Tabs

Version: 1 Type: Tab 0 ratings
1 star 2 stars 3 stars 4 stars 5 stars
comments

Collapse Tab

--------------------------------------------------------------------------------
                               SPARTA - COLLAPSE
--------------------------------------------------------------------------------

tabbed by: Randy Cornett (a.k.a stellar_hands)
e-mail: thursday_calgone@hotmail.com

tuning: Dropped D


There seems to be a lack of Sparta tabs on UG. So here's a tab on what I think is
the best song of Wiretap Scars. I decided to figure out both guitars for all you
kind people. the verse for the second guitar is all on the D string, and it moves
up and down the neck alot. people might think it would be harder to play it like
this, but listen to the record and that's what he's doing. Ok, enough bitching
like a bitch, here it is.

Guitar 1 (clean tone, almost like a piano)
e--7---------------7---------------7------------7--------------|
B--------7--8------------7-8-7-----------7-8-----------7-8-7---|
G-----7---------------7---------------7-------------7----------|
D--------------------------------------------------------------|
A--------------------------------------------------------------|
D--------------------------------------------------------------|

e--7--------------7----------------7---------------------------|
B--------7--8------------7-8-7------------7--8--8/10--8--7~----|
G-----7---------------7----------------7-----------------------|
D--------------------------------------------------------------|
A--------------------------------------------------------------|
D--------------------------------------------------------------|

Guitar 2 comes in with this while Guitar 1 repeats the above again. Both guitars
continue this until chorus. 
e-----------------------------------------------------------14~--|
B----------------------------------------------------------------|
G----------------------------------------------------------------|
D--12--12-12--11--11--7--7-7/9----12--12-12--11--11--7-7/14------|
A----------------------------------------------------------------|
D----------------------------------------------------------------|

Chorus (distortion)
[ Tab from: http://www.guitartabs.cc/tabs/s/sparta/collapse_tab.html ]
Guitar 1
e----------------------------------------------------------|
B----------------------------------------------------------|
G--7-7-7-7-7-7---9-9-9-9-9-9/--6-6-6-6-6-6---4-4-4-4-4-4---|
D--x-x-x-x-x-x---x-x-x-x-x-x/--x-x-x-x-x-x---x-x-x-x-x-x---|
A--9-9-9-9-9-9---7-7-7-7-7-7/--4-4-4-4-4-4---2-2-2-2-2-2---|
D----------------------------------------------------------|
                    "Words speak and choose..."

Guitar 2 (distortion, plays over Guitar 1)
e----------------------------------------------------------|
B----------------------------------------------------------|
G----------------------------------------------------------|
D--7-7-7-x--7~---7~------------2-2-3---0~---0~-------------|
A--7-7-7-x--5~---5~------------2-2-3---0~---0~-------------|
D--7-7-7-x--5~---5~------------2-2-3---0~---0~-------------|

Interlude (clean) do two times and on the last time slide the very last note to
the 17th fret really fast.
e--14------14----12------12----14-------14----12------12---|
B----------------------------------------------------------|
G------12------------12-------------12------------12-------|
D----------------------------------------------------------|
A----------------------------------------------------------|
D----------------------------------------------------------|

e--14------14----12-------12----10--12--10--9--10-10-------|
B----------------------------------------------------------|
G------12------------12------------------------------------|
D----------------------------------------------------------|
A----------------------------------------------------------|
D----------------------------------------------------------|

Verse for both guitars repeats again.
Than the chorus again.

Now here's the part with the little keyboards in back. Both guitars play Guitar
2's verse riff while this keyboard goes in the background. I've arranged it for guitar.

Keyboard (arranged for guitar)
e--14------------------14------------------14-----------------14--------------|
B--------------12-------------------12-----------------12-----------------12--|
G------12--14---------------12--14-------------12--14-------------12--14------|
D-----------------------------------------------------------------------------|
A-----------------------------------------------------------------------------|
D-----------------------------------------------------------------------------|
 repeat a bunch of times until the chorus again.

That's it.
Comments