Sparta - Collapse Chords & Tabs

 

Collapse Chords & Tabs

Sparta Chords & Tabs

Version: 1 Type: Bass Tab 0 ratings
1 star 2 stars 3 stars 4 stars 5 stars
comments

Collapse Bass Tab

   
 /\= slide
(fret #) = Let note Ring


Verse/Intro
G|-----------------|
D|-(0)-------------|
A|-----(2)-----(2)-|
E|---------(3)-----|
[ Tab from: http://www.guitartabs.cc/tabs/s/sparta/collapse_btab.html ]
Chorus (A)
G|------------------------------|
D|------------------------------|
A|-44444-9-999-77777/12-12\5555-|
E|------------------------------|
Chorus (B)
G|-------------------------|
D|-------------------------|
A|-44444-9-999-5-555-9-----|
E|---------------------(0)-|
The Chorus is played parts ABAB

Interlude
G|----------------------------|
D|-------00000----------------|
A|-22222----------------------|
E|--------------333333--33333-|

Verse      x5
Chrous     x2
Verse      x5
Interlude  x2
Chorus     x2
Interlude  x2

End on
G|-----|
D|-----|
A|-----|
E|-(0)-|
Comments