Sparta - Cataract Chords & Tabs

 

Cataract Chords & Tabs

Sparta Chords & Tabs

Version: 2 Type: Tab 0 ratings
1 star 2 stars 3 stars 4 stars 5 stars
comments

Cataract Tab

Cataract - Sparta
Left Speaker - Guitar 1 , Jim Ward
Right Speaker - Guitar 2 , Paul Hinojos
Standard Tuning

Verses Guitar 2

e----------12-----10------10--9-------------|
b----10------------------------10--10-------|
g-11----11----11------11---------11---------|
d-------------------------------------------|   -(x2)
a-------------------------------------------|
E-------------------------------------------|

e-----------------------9---------------|
b---------10----9----9---10--10---------|
g----9---------------------11-----------|   -(x2)
d-11---11----11---11--------------------|
a---------------------------------------|
E---------------------------------------|

Prechorus Guitar 2

e----------------------------------------------------|
b----------------------------------------------------|
g-11-11-11-11-11-11-1414141414-(13)14(13)14(13)14~---|
d----------------------------------------------------|
a----------------------------------------------------|
E----------------------------------------------------|
[ Tab from: http://www.guitartabs.cc/tabs/s/sparta/cataract_tab_ver_2.html ]
e-14141414-12121212-10101010-1717171717-(16)17(16)17(16)17(16)17~---|
b-------------------------------------------------------------------|
g-------------------------------------------------------------------|
d-------------------------------------------------------------------|
a-------------------------------------------------------------------|
E-------------------------------------------------------------------|

Chorus

Guitar 2

e---------------------------------------|
b---------------------------------------|
g-77777777-4/6--------------------------|
d-77777777-x/x--5555555-7777777---------|
a-55555555-2/4--5555555-7777777---------|
E---------------3333333-5555555---------|

Guitar 1

e-----------------------------------|
b-----------------------------------|
g-7~-xx-7~-4/6----------------------|
d-7~-xx-7~-x/x--555555-777777-------|
a-5~-xx-5~-2/4--555555-777777-------|
E---------------333333-555555-------|

On the 2nd chorus second time thru guitar 1 plays the same chorus while
guitar 2 plays this

e-14------14-------14-------14---------17---------17---------17--------17----------|
b---14-14----14-14----14-14----14-14-------14-14------14-14-----14-14------14-14---|
g----------------------------------------------------------------------------------|
d----------------------------------------------------------------------------------|
a----------------------------------------------------------------------------------|
E----------------------------------------------------------------------------------|

Outro

both guitars

e-------------------------------------------|
b-------------------------------------------|
g-111111-999-13/141414141414-161616161616---|
d-x-x-x--xxx-x-/x-x-x-x-x-x--x-x-x-x-x-x----|
a-9-9-9--777-11/121212121212-141414141414---|
E-------------------------------------------|
Comments