Sparta - Cataract Chords & Tabs

 

Cataract Chords & Tabs

Sparta Chords & Tabs

Version: 1 Type: Bass Tab 0 ratings
1 star 2 stars 3 stars 4 stars 5 stars
comments

Cataract Bass Tab

Sparta
Cataract
Standard tuning
Tabbed by mavrick45
Mavrick_45@sugarray.com



Part one 00:32          X3
G------------------------------
D-------------------4----------
A-------------2/5-----5--------
E---2---2-2---------------7/---


Part two
G-------------------------4-2-1---
D-------------------4-------------
A-------------2/5-----5-----------
E---2---2-2-----------------------


Part one X2

[ Tab from: http://www.guitartabs.cc/tabs/s/sparta/cataract_btab.html ]
Part three   X2
G-------------------------------------------
D-----------------------22222222-22222222---
A---55555555-55555555-----------------------
E-------------------------------------------


Part one
Part two
Part one
Part three


Part four X4
G------------------4/6------------------------
D---------------------------------------------
A---555555555555------------------------4-4---
E------------------------222222222222---------


Part one X2
Part two
Part one
Part four X6


Ending   Play till fade out
G-----------------------------------------------
D-----------------------------------------------
A---5555555555555555----------------------------
E----------------------55555555---2222---0000---
Comments