Sparta - Assemble The Empire Chords & Tabs

 

Assemble The Empire Chords & Tabs

Sparta Chords & Tabs

Version: 1 Type: Bass Tab 0 ratings
1 star 2 stars 3 stars 4 stars 5 stars
comments

Assemble The Empire Bass Tab

Sparta
Assemble the empire
Tabbed by  mavrick45
Mavrick_45@sugarray.com



Part one
G-----------------------------------------------------]
D-----------------------------------------------------]    X8
A-----------------------------------------------------]
E---2---2---2h3p2---2---2---232---2---2---232---0-0-0-]


Part two
G------------------------------------]
D---------------------------0---2----]
A---000000000000000000---4-----------]
E------------------------------------]

[ Tab from: http://www.guitartabs.cc/tabs/s/sparta/assemble_the_empire_btab.html ]
Part three
G--------------------------------]
D--------------------------------]
A---000000000000000000-----------]
E------------------------3-3-3---]

Part two

Part four
G--------------------------------------]
D-------------------------------0-0-0--]
A---000000000000000000---3-3-3---------]
E--------------------------------------]

Part one  X8
Part two
Part three
Part two
Part four


Part five
G----------------------------]
D----------------------------]   X2
A----------------------------]
E---2---2222---2222---0-0-0--]

Part one   X8

End
G--------]
D--------]
A--------]
E---2-2--]
Comments