Sparta - Air Chords & Tabs

 

Air Chords & Tabs

Sparta Chords & Tabs

Version: 1 Type: Bass Tab 0 ratings
1 star 2 stars 3 stars 4 stars 5 stars
comments

Air Bass Tab

   
Sparta
Air
Tabbed by mavrick45
mavrick_45@sugarray.com

Drop-D tuning

part one  X6
G----------------------------------
D----------------------------------
A----2~------4~--------------------
D---------------------4~------5~---


part two  X2
G-------------------------------------------------
D-------------------------------------------------
A----22222222-------------------------------------
D----------------55555555-----0000000000000000----

[ Tab from: http://www.guitartabs.cc/tabs/s/sparta/air_btab.html ]
part three   X4
G-------------------------------------------------------------
D-------------------------------------------------------------
A--------------------------------------------------------0*---
D----2---4---2---0---0---2---4---2---0---0---2---4---2---------


part four   X6
G-------------------------------------------------
D-------------------------------------------------
A----22222222---44444444--------------------------
D---------------------------44444444---55555555---


part three   X4

guitar/drum solo


part five   X4    (this part is still a bit sketchy)
G-------------------------------------------------------------
D-------------------------------------------------------------
A-------------------0000000----------------000000-------------
D----0--0--0--0-----------------222/444---------------22222---


Part six   X2
G---------------------
D---------------------
A---2*----------------
D-----------5*-----0*-

part three   X4

end on      D---0*---
Comments