Sparkle Sharks - Vertex Shaded Refractions Chords & Tabs

 

Vertex Shaded Refractions Chords & Tabs

Sparkle Sharks Chords & Tabs

Version: 1 Type: Tab 0 ratings
1 star 2 stars 3 stars 4 stars 5 stars
comments

Vertex Shaded Refractions Tab

incongruent shapes detest me as i fall free
reflected lines disregarding my mirrored imagery
what is it youre trying to find what are you seeking
beneath the mirror's edge your own thoughts are speaking

mirror mirror
mirror mirror

thoughts which are speaking your own edge of the mirror
seeking to find what to try what to glimmer
imagery mirrored my disregarding lines
incongruent shapes in geometrical times

mirror mirror
mirror mirror


[ Tab from: http://www.guitartabs.cc/tabs/s/sparkle_sharks/vertex_shaded_refractions_tab.html ]
verse
-------------------------------------
-------------------------------------
---0--0------------------------------
----0--0-0--x4-----------------------
--9--9--9----------------------------
-----------------------------------

chorus
-------------------------------------
-------------------------------------
--11-12-14-16------------------------
--x--x--x--x-------------------------
--9--10-12-14------------------------
-------------------------------------

bridge
-------------------------------------
-------------------------------------
-------------------------------------
---14----------------------------
---x----x50------------------------
---12-----------------------------
Comments