Sparkle Sharks - The Well Fair State Chords & Tabs

 

The Well Fair State Chords & Tabs

Sparkle Sharks Chords & Tabs

Version: 1 Type: Tab 0 ratings
1 star 2 stars 3 stars 4 stars 5 stars
comments

The Well Fair State Tab

   
sit behind your big desk oh you look so innocent
smiling like the pits of hell did not create you
sniffing around like you own this whole town
get your upper class hopes up so i can beat you down

youre like a greedy demon never knowing when to stop
you steal all the riches then burn the evidence
hunger creates war creates hunger but not for you
cos everything's painless on the side of the "true" 

politics politics what is it for?
give us the vote and we'll show you the door

dont call it political satire just cos youre a tool
bring on the democracy we need a little honesty
and dont try to use sarcasm the lowest form of wit
but still on your agenda cos you think it'll fit

politics politics what is it for?
give us the vote and we'll show you the door
[ Tab from: http://www.guitartabs.cc/tabs/s/sparkle_sharks/the_well_fair_state_tab.html ]
politics politics what is it for?
give us the vote and we'll show you the door


chords n twiddly bits:

Dmin 	C    Dmin    Am
--1-3---------1-3------------------------------------
--3-3---1-1---3-3----1-0---------------------------------
--2-2---0-0---2-2----2-2---------------------------------
--------2-3----------2-2-----------------------------
--------3-3----------------------------------------
-------------------------------------------------

--5-5-----3-3-----5-5-----5-5----------------------------
--5--5-5--3--3-3--5--5-5--5--5-5-----------------------------
--7---7---5---5---7---7---5---5--------------------------
--7-------5-------7-------7--------------------------
--5-------3-------5-------7--------------------------
--5-------3-------5-------5--------------------------
Comments