Spark - Coming Down - Riff Chords & Tabs

 

Coming Down - Riff Chords & Tabs

Spark Chords & Tabs

Version: 1 Type: Tab 0 ratings
1 star 2 stars 3 stars 4 stars 5 stars
comments

Coming Down - Riff Tab

   
##################################################################################
# This file is the author's own work and represents their interpretation of the  #
# song. You may only use this file for private study, scholarship, or research.  #
##################################################################################

Spark - Coming Down


[ Tab from: http://www.guitartabs.cc/tabs/s/spark/coming_down_riff_tab.html ]
in the recording it has bass helping the bass part... so if you wanna know bass for this song... you can get it from playing that part ;-) oh yeah after like the first lil' bit of singing the guitar starts doin' this down progression with the arpeggio.. and i haven't been able to figure out whats goin' on with that... but when i figure it out i'll send it in...
intro riff
E|---------------------------------|
B|---------------------------------|
G|-----7-------7-------7-------7---|
D|---7---7---7---7---7---7---7---7-|
A|---------------------------------|
E|-5-------5-------0-------0-------|
still intro riff
E|---------------------------------|
B|---------------------------------|
G|-----7-------7-------7-------7---|
D|---7---7---7---7---7---7---7---7-|
A|-9-------9-------5-------5-------|
E|---------------------------------|
and those two lines are repeated throughout the song... sept for when it starts using the down progression part that i don't know... but you can always just use that it works and people that don't play wouldn't notice the difference.. heck people that do wouldn't notice the difference if they haven't tried to tab the song themselves... so its cool by the way the chords strummed in the chorus are probably
____________________________________________________________________
E|----------|
B|----------|
G|-----11-7-|
D|-7-2-11-7-|
A|-7-2-9--5-|
E|-5-0------|
listen to the song to get rythym and how many times you strum each of those chords...
by the way theres two guitars.. but the second guitarist only comes in for the chorus... and then both of the guitarist are just playing the samething so don't worry about that...

(the break's could be bring's haha well thats it)...
God Bless y'all... any corrections of comments send to SacredDeath316@aol.com

Comments