Spankboy - Set It Off Chords & Tabs

 

Set It Off Chords & Tabs

Spankboy Chords & Tabs

Version: 1 Type: Tab 0 ratings
1 star 2 stars 3 stars 4 stars 5 stars
comments

Set It Off Tab

    Intro

 E |------------------------------------------------------------------------------|
 B |------------------------------------------------------------------------------|
 G |------------------------------------------------------------------------------|
 D |-------------------7-6----------1-2-1-----------------------7-6---------------| 
 A |--------------7-7--------22-2---------2-1-2-1---------7-7--------00-0--22--7--|
 E |--0000--00-0----------------------------------2-00-0--------------------------|

 E |--------------------------------------------------------------------------|
 B |--------------------------------------------------------------------------|
 G |--------------------------------------------------------------------------| 
 D |---------------7-6----------1-2-1-----------------------7-6---------------| 
 A |----------7-7--------22-2---------2-1-2-1---------7-7--------00-0--22--7--|
 E |----00-0----------------------------------2-00-0--------------------------|

 E |----------------------------------------------|
 B |----------------------------------------------|
 G |----------------------------------------------|
 D |--2-2-2-2-2-2-2-2-2-2-2-2-2-2-2-2-------------|
 A |--2-2-2-2-2-2-2-2-2-2-2-2-2-2-2-2-------------|
 E |--0-0-0-0-0-0-0-0-0-0-0-0-0-0-0-0-------------|

Verse

 E |----------------------------------------------|
 B |----------------------------------------------|
 G |----------------------------------------------|
 D |--2-2--2-2--9-9--7-7---2-2--2-2--7-7--9-9-----|
 A |--2-2--2-2--9-9--7-7---2-2--2-2--7-7--9-9-----|
 E |--0-0--0-0--7-7--5-5---0-0--0-0--5-5--7-7-----|

 E |----------------------------------------------|
 B |----------------------------------------------|
 G |----------------------------------------------|
 D |--2-2--2-2--9-9--7-7---2-2--2-2--7-7--9-9-----|
 A |--2-2--2-2--9-9--7-7---2-2--2-2--7-7--9-9-----|
 E |--0-0--0-0--7-7--5-5---0-0--0-0--5-5--7-7-----|

Pre Chorus

 E |--4-4-4-4--7-7--5-5---4-4-4-5-5/7-7-7---------|
 B |--5-5-5-5--7-7--5-5---5-5-5-5-5/7-7-7---------|
 G |--4-4-4-4--8-8--6-6---4-4-4-6-5/8-8-8---------|
 D |----------------------------------------------|
 A |----------------------------------------------|
 E |----------------------------------------------|

 E |--4-4-4-4--7-7--5-5---4-4-4-5-5/7-7-7---------|
 B |--5-5-5-5--7-7--5-5---5-5-5-5-5/7-7-7---------|
 G |--4-4-4-4--8-8--6-6---4-4-4-6-5/8-8-8---------|
 D |----------------------------------------------|
 A |----------------------------------------------|
 E |----------------------------------------------|

 E |--4-4-4-4--7-7--5-5---4-4-4-5-5/7-7-7---------|
 B |--5-5-5-5--7-7--5-5---5-5-5-5-5/7-7-7---------|
 G |--4-4-4-4--8-8--6-6---4-4-4-6-5/8-8-8---------|
 D |----------------------------------------------|
 A |----------------------------------------------|
 E |----------------------------------------------|

 E |--4-------------------------------------------|
 B |--5-------------------------------------------|
 G |--4-------------------------------------------|
 D |--------------7-7--9-9------------------------|
 A |--------------7-7--9-9------------------------|
 E |--------------5-5--7-7------------------------|

Chorus

 E |----------------------------------------------|
 B |----------------------------------------------|
 G |-----------------------------6-6--------------|
 D |--2-2--2--6-6--7-7---2-2--2--6-6--7--7--------|
 A |--2-2--2--6-6--7-7---2-2--2--4-4--7--7--------|
 E |--0-0--0--4-4--5-5---0-0--0-------5--5--------|

 E |----------------------------------------------|
 B |----------------------------------------------|
 G |-----------------------------6-6--------------|
 D |--2-2--2--6-6--7-7---2-2--2--6-6--7--7--------|
 A |--2-2--2--6-6--7-7---2-2--2--4-4--7--7--------|
 E |--0-0--0--4-4--5-5---0-0--0-------5--5--------|

Verse

 E |----------------------------------------------|
 B |----------------------------------------------|
 G |----------------------------------------------|
 D |--2-2--2-2--9-9--7-7---2-2--2-2--7-7--9-9-----|
 A |--2-2--2-2--9-9--7-7---2-2--2-2--7-7--9-9-----|
 E |--0-0--0-0--7-7--5-5---0-0--0-0--5-5--7-7-----|

 E |----------------------------------------------|
 B |----------------------------------------------|
 G |----------------------------------------------|
 D |--2-2--2-2--9-9--7-7---2-2--2-2--7-7--9-9-----|
 A |--2-2--2-2--9-9--7-7---2-2--2-2--7-7--9-9-----|
 E |--0-0--0-0--7-7--5-5---0-0--0-0--5-5--7-7-----|

 E |----------------------------------------------|
 B |----------------------------------------------|
 G |----------------------------------------------|
 D |--2-2--2-2--9-9--7-7---2-2--2-2--7-7--9-9-----|
 A |--2-2--2-2--9-9--7-7---2-2--2-2--7-7--9-9-----|
 E |--0-0--0-0--7-7--5-5---0-0--0-0--5-5--7-7-----|
[ Tab from: http://www.guitartabs.cc/tabs/s/spankboy/set_it_off_tab.html ]
 E |----------------------------------------------|
 B |----------------------------------------------|
 G |----------------------------------------------|
 D |--2-2--2-2--9-9--7-7---2-2--2-2--7-7--9-9-----|
 A |--2-2--2-2--9-9--7-7---2-2--2-2--7-7--9-9-----|
 E |--0-0--0-0--7-7--5-5---0-0--0-0--5-5--7-7-----|

Pre Chorus

 E |--4-4-4-4--7-7--5-5---4-4-4-4-5-5-5/7-7-7-----|
 B |--5-5-5-5--7-7--5-5---5-5-5-5-5-5-5/7-7-7-----|
 G |--4-4-4-4--8-8--6-6---4-4-4-4-6-6-6/8-8-8-----|
 D |----------------------------------------------|
 A |----------------------------------------------|
 E |----------------------------------------------|

 E |--4-4-4-4--7-7--5-5---4-4-4-4-5-5-5/7-7-7-----|
 B |--5-5-5-5--7-7--5-5---5-5-5-5-5-5-5/7-7-7-----|
 G |--4-4-4-4--8-8--6-6---4-4-4-4-6-6-6/8-8-8-----|
 D |----------------------------------------------|
 A |----------------------------------------------|
 E |----------------------------------------------|

 E |--4-------------------------------------------|
 B |--5-------------------------------------------|
 G |--4-------------------------------------------|
 D |--------------7-7--9-9------------------------|
 A |--------------7-7--9-9------------------------|
 E |--------------5-5--7-7------------------------|

 E |----------------------------------------------|
 B |----------------------------------------------|
 G |-----------------------------6-6--------------|
 D |--2-2--2--6-6--7-7---2-2--2--6-6--7--7--------|
 A |--2-2--2--6-6--7-7---2-2--2--4-4--7--7--------|
 E |--0-0--0--4-4--5-5---0-0--0-------5--5--------|

 E |----------------------------------------------|
 B |----------------------------------------------|
 G |-----------------------------6-6--------------|
 D |--2-2--2--6-6--7-7---2-2--2--6-6--7--7--------|
 A |--2-2--2--6-6--7-7---2-2--2--4-4--7--7--------|
 E |--0-0--0--4-4--5-5---0-0--0-------5--5--------|

Bridge

 E |----------------------------------------------|
 B |----------------------------------------------|
 G |----------------------------------------------|
 D |----------------------------------------------|
 A |--4-4--2-2--4-4--2-2--4-4--2-2--4-4-----------|
 E |--2-2--0-0--2-2--0-0--2-2--0-0--2-2-----------|

 E |-------------------------------------------------------------|
 B |-------------------------------------------------------------|
 G |-------------------------------------------------------------|
 D |--x-x-x-x--2--x-x-x-x--2-x-x-2----x--x--2--x--x--2--x-x-2----|
 A |--x-x-x-x--2--x-x-x-x--2-x-x-2----x--x--2--x--x--2--x-x-2----|
 E |--0-0-0-0--0--0-0-0-0--0-0-0-0----0--0--0--0--0--0--0-0-0----|

 E |----------------------------------------------|
 B |----------------------------------------------|
 G |----------------------------------------------|
 D |--2-2-2-2-2-2-2-2-2-2-2-2---------------------|
 A |--2-2-2-2-2-2-2-2-2-2-2-2---------------------|
 E |--0-0-0-0-0-0-0-0-0-0-0-0---------------------|

 E |--------------------------------------------------------------------------------|
 B |--------------------------------------------------------------------------------|
 G |--------------------------------------------------------------------------------|
 D |----------2---------4--5---------1-2----------4---------2---------4--5----------|
 A |--------------------------------------------------------------------------------|
 E |--0-0-0-0---0-0-0-0------0-0-0-0------0-0-0-0---0-0-0-0---0-0-0-0------0-0-0-0--|

 E |----------------------------------------------|
 B |----------------------------------------------|
 G |----------------------------------------------|
 D |--2-2-2-2-2-2-2-2-2-2-2-2---------------------|
 A |--2-2-2-2-2-2-2-2-2-2-2-2---------------------|
 E |--0-0-0-0-0-0-0-0-0-0-0-0---------------------|

Intro

 E |-----------------------------------------------------------------------------|
 B |-----------------------------------------------------------------------------|
 G |-----------------------------------------------------------------------------|
 D |--2-2-------------7-6----------1-2-1-----------------------7-6---------------| 
 A |--2-2--------7-7--------22-2---------2-1-2-1---------7-7--------00-0--22--7--|
 E |--0-0--00-0----------------------------------2-00-0--------------------------|

 E |--------------------------------------------------------------------------|
 B |--------------------------------------------------------------------------|
 G |--------------------------------------------------------------------------| 
 D |---------------7-6----------1-2-1-----------------------7-6---------------| 
 A |----------7-7--------22-2---------2-1-2-1---------7-7--------00-0--22--7--|
 E |----00-0----------------------------------2-00-0--------------------------|

Ending

 E |----------------------------------------------|
 B |----------------------------------------------|
 G |-----------------------------6-6--------------|
 D |--2-2--2--6-6--7-7---2-2--2--6-6--7--7--------|
 A |--2-2--2--6-6--7-7---2-2--2--4-4--7--7--------|
 E |--0-0--0--4-4--5-5---0-0--0-------5--5--------|

 E |----------------------------------------------|
 B |----------------------------------------------|
 G |-----------------------------6-6--------------|
 D |--2-2--2--6-6--7-7---2-2--2--6-6--7--7--------|
 A |--2-2--2--6-6--7-7---2-2--2--4-4--7--7--------|
 E |--0-0--0--4-4--5-5---0-0--0-------5--5--------|
Comments