Spain - Untitled No Chords & Tabs

 

Untitled No Chords & Tabs

Spain Chords & Tabs

Version: 1 Type: Chords 0 ratings
1 star 2 stars 3 stars 4 stars 5 stars
comments

Untitled No Chords

   
Untitled #1
by Spain
Tabbed by Jo

The rythmic pattern of this song is pretty straightforward. The same riff is played over and over, except for the small “bridge” between the verses, and a short riff during the solo parts. You can hardly hear the acoustic guitar part during these bridges,  due to bass guitar and electric guitar overwhelming loudness.

Symbols
You will find the following symbols in this chord chart:
^^^^ : let ring			p: pull off
s: slide


Main riff 
	A#m	G#	C#	F#	A#m
e----6^^---6^^------4---4--------4^^^-----4---2^^^----------------------6------6^^----6---6^^---6---6^^-----	
B---6^^----6^^-----4---4--------6^^^-----6----2^^^---------2-----------6------6^^----6---6^^---6---6^^----	
G---6^^---6^^-----5----5--------6^^^-----6----3^^^---------3-----------6------6^^----6---6^^---6---6^^-----	
D---8^^---8^^-----6----6--------6^^^-----6----4^^^---------4----4--s--8-------------------8^^-------8^^-----	
A---8^^---8^^-----6----6--------4^^^-----4----4^^^------4-------4--s--8----8--------------8^^-------8^^-----	
E---6^^---6^^-----4----4-------------------------2^^^------2------2---s--6---6---------------8^^-------6^^----	
“Walked   a       way,                released from               all    my        crimes…”

[ Tab from: http://www.guitartabs.cc/tabs/s/spain/untitled_no_crd.html ]
Bridge #1
	G#	F#	A#m
e----4^^^^----------------------------2^^^^---------------------------------6-------------------------------
B----4^^^^---------------------------2^^^^----------------------------------6--------------------------------
G----5^^^^---------5--5-------------3^^^^---------------------------------6----Back to main riff-------
D----6^^^^---------6--6-------------4^^^^-------------------4--4---------8----------------------------------
A----6^^^^---------6--6---6-s-8-s-4^^^^-------------------4--4--------8------------------------------------
E----4^^^^^----------------4-s-6-s-2^^^^-------------------2--2--2-s--6---------------------------------
“But the cruelest thing,                was      all my suffering…”

Solo riff

This riff, which  takes place around the end of the solo parts, is really impossible to hear. You can only say that it is here, but there’s no guessing what is really played. Therefore, I chose to follow the bass line:
	D#	F	C#	D#		A#m
e---6--6-----1^^----4-4---6^^-----------6-----6--6^^----6---6^^----6---6^^---6—6^^----------------
B---8--8----1^^----6-6---8^^---8p6^--6-----6--6^^---6---6^^----6---6^^----6---6^^---------------
G---8--8---2^^-----6-6---8^^---8p6^--6-----6--6^^---6---6^^----6---6^^----6---6^^------(Riff x3)
D---8--8---3^^-----6-6---8^^---8p6^--8---------8^^-------8^^---------8^^--------8^^---------------
A---6--6----3^^----4-4---6^^------------8---------8^^-------8^^---------8^^--------8^^----------------
E------------1^^----------------------------6----------6^^-------6^^---------6^^--------6^^---------------

That’s it. Enjoy.
All comments and suggestions welcome: jean-olivier.grall@club-internet.fr
Comments