Spacehog - Skylark Chords & Tabs

 

Skylark Chords & Tabs

Spacehog Chords & Tabs

Version: 1 Type: Bass Tab 0 ratings
1 star 2 stars 3 stars 4 stars 5 stars
comments

Skylark Bass Tab

Song: Skylark
Album: The Chinese Album
Band: Spacehog

Verses:

G|-----------------------------
D|------------------------------
A|----------4---3---2-----11-12-
E|-5--0--2-----1---0---5--------

Pre-Chorus:

G|-----------------------------------
D|-----------------------------------
A|---------2/4444444-2/5555555-2/4444444-
E|-5555555----------------------------
[ Tab from: http://www.guitartabs.cc/tabs/s/spacehog/skylark_btab.html ]
G|----------------------------------
D|----------------------------------
A|---------2/4444444-2/5555555-7-5-4-2-
E|-5555555---------------------------

Chorus: (slow)

G|-------------------------------
D|---------------------------------
A|-----------4--4---3--3----2---2--
E|-5-5-5-5--2--2---1--1---0----0---

G|-----------------------------
D|-----------------------------
A|--------4---3----2------11-12-
E|-5--0--2---1---0----5---------

	this is a really good and easy bass line you just have to listen to the cd to get the timing. well God Bless.

send requests, comments to
			ybbob182@hotmail.com

Comments