Spacehog - Never Coming Dow Chords & Tabs

 

Never Coming Dow Chords & Tabs

Spacehog Chords & Tabs

Version: 1 Type: Tab 0 ratings
1 star 2 stars 3 stars 4 stars 5 stars
comments

Never Coming Dow Tab

theres 2 guitars in the verse.


...=slow down


guitar1
everything but the outro:
e-7--7--x-7-7--5-5-5-5-x-5-5--3--3--x-3-3--2-2-2-2-x-2-2-|
B-7--7--x-9-9--5-5-5-5-x-7-7--3--3--x-5-5--2-2-2-2-x-4-4-|
G-8--8--x-9-9--6-6-6-6-x-7-7--4--4--x-5-5--3-3-3-3-x-4-4-|
D-9--9--x-9-9--7-7-7-7-x-7-7--5--5--x-5-5--4-4-4-4-x-4-4-|
A-9--9--x-7-7--7-7-7-7-x-5-5--5--5--x-3-3--4-4-4-4-x-2-2-|
E-7--7--x-7-7--5-5-5-5-x-5-5--3--3--x-3-3--2-2-2-2-x-2-2-|

[ Tab from: http://www.guitartabs.cc/tabs/s/spacehog/never_coming_dow_tab.html ]
guitar 2
verse: this was the tricky part to figure out
e----------------------------------------------------------------------|
B----------------------------------------------------------------------|
G----------------------------------------------------------------------|
D----------------------------------------------------------------------|
A-2-2-4-6-7-7-9-11-12-12-10-10-9-9-7---10-10-8-8-7-7-3-3---0-1-2---2---|
E------------------------------------7-------------------2-----------0-|


guitar 1
outro:
e-0--0--3--3--3--3--5--5--1-1-1-1-1-1-1-1-1-1-1-1-1-1-1-1-2-|
B-2--2--3--3--5--5--7--7--3-3-3-3-3-3-3-3-3-3-3-3-3-3-3-3-4-|
G-2--2--4--4--5--5--7--7--3-3-3-3-3-3-3-3-3-3-3-3-3-3-3-3-4-|
D-2--2--5--5--5--5--7--7--3-3-3-3-3-3-3-3-3-3-3-3-3-3-3-3-4-|
A-0--0--5--5--3--3--5--5--1-1-1-1-1-1-1-1-1-1-1-1-1-1-1-1-2-|
E-0--0--3--3--3--3--5--5--1-1-1-1-1-1-1-1-1-1-1-1-1-1-1-1-2-|
                                          .................


theres only 2 guitars in the verse.


if ya'll need the lyrics, gots a question, or wants a new friend, then email me at fuser158@sbcglobal.net


all hail the ug!!!
Comments