Spacehog - In The Meantime Chords & Tabs

 

In The Meantime Chords & Tabs

Spacehog Chords & Tabs

Version: 2 Type: Tab 0 ratings
1 star 2 stars 3 stars 4 stars 5 stars
comments

In The Meantime Tab

   
have a very special day for a very special little man.


...=slow down


intro/verse:
e-0--4--0-2-4--0--5--0--5--|
B--------------------------|
G--------------------------|
D--------------------------|
A--------------------------|x10
E--------------------------|

e-0--5--0--5--0--5--0--5--0--4--0-2-4--0--4--0--4-|
B-------------------------------------------------|
G-------------------------------------------------|
D-------------------------------------------------|
A-------------------------------------------------|
E-------------------------------------------------|

chorus:
e----------------------------------|
B----------------------------------|
G---------7-7-7-7---------454542---|
D-7-7-7-7-7-7-7-7-4-4-4-4-------42-|
A-7-7-7-7-5-5-5-5-4-4-4-4----------|x3
E-5-5-5-5---------2-2-2-2----------|

e---------------------------------|
B---------------------------------|
G---------------------------------|
D-7-7-7-7-5-5-5-5-4-4-4-4-4-4-4-4-|
A-7-7-7-7-5-5-5-5-4-4-4-4-4-4-4-4-|
E-5-5-5-5-3-3-3-3-2-2-2-2-2-2-2-2-|


bridge:
e-----------------------------------------------|
B-----------------------------------------------|
G-5-5-5-5-5-5-5-5-7-7-7-7-7-7-7-7---------------|
D-5-5-5-5-5-5-5-5-7-7-7-7-7-7-7-7---------------|
A-3-3-3-3-3-3-3-3-5-5-5-5-5-5-5-5-10--9--10p9-7-|
E-----------------------------------------------|
[ Tab from: http://www.guitartabs.cc/tabs/s/spacehog/in_the_meantime_tab_ver_2.html ]
e-----------------------------------------------------------------|
B-----------------------------------------------------------------|
G-5-5-5-5-5-5-5-5-4-4-4-4-4-4-4-4-9-9-9-9-9-9-9-9-9-9-9-9-9-9-9-9-|
D-5-5-5-5-5-5-5-5-4-4-4-4-4-4-4-4-9-9-9-9-9-9-9-9-9-9-9-9-9-9-9-9-|
A-3-3-3-3-3-3-3-3-2-2-2-2-2-2-2-2-7-7-7-7-7-7-7-7-7-7-7-7-7-7-7-7-|
E-----------------------------------------------------------------|


i suck at tabbing out solos, so just play the chorus during it

outro:
e-------------------------------------------------------------------|
B-------------------------------------------------------------------|
G---------7-7-xxxx--------4-4-3-3---------7-7-------------4-4-3-3-2-|
D-7-7-xxxx7-7-xxxx4-4-xxxx4-4-3-3-7-7-xxxx7-7-xxxx4-4-xxxx4-4-3-3-2-|
A-7-7-xxxx5-5-xxxx4-4-xxxx2-2-1-1-7-7-xxxx5-5-xxxx4-4-xxxx2-2-1-1-0-|
E-5-5-xxxx--------2-2-xxxx--------5-5-xxxx--------2-2-xxxx----------|
                                                          .........


im really tired right now, so you can find out the order yourself.


nothing personal, but dont email me if you smell bad, i just dont like people with
poor hygein, no hard feelings.


for anyone else, if you have questions, want the lyrics, are to stupid to find out
the order yourself (in which case ill give you the order), or wanna tell me about
your pony collection, then email me at fuser158@sbcglobal.net


i want to know what you think of my tabs, plus i believe self expression is important,
so please rate this and my other tabs.


ug, not just u, not just g, but ug
Comments