Spacehog - In The Meantime Chords & Tabs

 

In The Meantime Chords & Tabs

Spacehog Chords & Tabs

Version: 2 Type: Bass Tab 0 ratings
1 star 2 stars 3 stars 4 stars 5 stars
comments

In The Meantime Bass Tab

Song Title: In the meantime
Artist: Spacehog
----------------------------------------------


In the Meantime
Spacehog

I was listining to the record and this is diffrent from Chris' but it sounds right.

Beg.
G|------------------------------------------7h9--7--0--------------------------|
D|-------------6--7--8--9------------------------------7h9--7----------------.-|
A|-------------------------7--9--11--11--------------------------------------.-|
E|--0----0--0----------------------------4-------------------------------------|

Lead up to chorus
G|----------------------------------------------7h9--9--9--9--9--9--9--9-------|
D|--12--12--12--12-------------------------------------------------------------|
A|------------------12--12--12--12--7--7--7--7---------------------------------|
E|-----------------------------------------------------------------------------|

Chorus
G|-----------------------------------------------------------------------------|
D|-----------------------------------------------------------------------------|
A|--0--0--0--0--0--0--5--5--5--5--------02h4--2--------------------------------|
E|--------------------------------2--2-----------4--2--0-----------------------|

Chorus end
G|-----------------------------------------------------------------------------|
D|-----------------------------------------------------------------------------|
A|--0--0--0--0--5--5--5--5-----------------------------------------------------|
E|--------------------------2--2--2--2--2--2--2--2-----------------------------|
[ Tab from: http://www.guitartabs.cc/tabs/s/spacehog/in_the_meantime_btab_ver_2.html ]
solo

G|-----------------------------------------------------------------------------|
D|-----------------------------------------------------------------------------|
A|--3--3--3--5--5--5--7--7--7--8--9--3--3--3--3--5--5--5--5--7--7--7--7--7--7--|
E|-----------------------------------------------------------------------------|

G|-----------------------------------------------------------------------------|
D|-----------------------------------------------------------------------------|
A|--7--7--7--7--7--7\0---------------------------------------------------------|
E|-----------------------------------------------------------------------------|
end of the song
G|-----------------------------------------------------------------------------|
D|-----------------------------------------------------------------------------|
A|--0--0--5--5--------1--1--0--------------------------------------------------|
E|--------------2--2-----------------------------------------------------------|
The song goes in this order
Beg. play it 2 times
lead up to Chorus 1 time
chorus 3 times
chorus end 1 time
beg. 3 times
lead up to chorus 1 time
chorus 3 times
chorus end 1 time
beg. play 3 times
lead up to Chorus 1 time
chorus 3 times
chorus end 1 time
solo one time
chorus 6 times 
chorus end 1 time
the end of the song 2

tabbed by Mike mills
e-mail me at Mills@aol.com

see you hog fans later keep slapin on the four stringer.
rap and dance music suck!!!!!!!!!!!!!!!!!!!!!!!!!!!!!!!!!!!!!!!!!!!!!!!!!!!!!!!


Submitted by:  Mike Mills (Mills@aol.com)

Comments