Spacehog - Cruel To Be Kind Chords & Tabs

 

Cruel To Be Kind Chords & Tabs

Spacehog Chords & Tabs

Version: 2 Type: Tab 0 ratings
1 star 2 stars 3 stars 4 stars 5 stars
comments

Cruel To Be Kind Tab

Submitted by: thom (but the credit goes to the guy who tabbed it)
Tabbed by: David Harrison
Song: Cruel To Be Kind 
Band: Spacehog

	This song is really easy so you shouldn't have any 
trouble playing it.

Intro/Chorus:
E|---------------------||
B|---------------------||
G|---------------------||
D|-1010~\7-7555\3~/555-||
A|-1010~\7-7555\3~/555-||
E|- 8 8p05-5333\1~/333-||

Verse:
E|-----------------||
B|-----------------||
G|-----------------||
D|-10-107-755-3~/5-||
A|-10-107-755-3~/5-||
E|- 8- 85-533-1~/3-||

Solo:(w/wah-wah)
E|--10b~~~10119-10~b~r-------8h10p8----------------------------|
B|--------------------10-1010-------8h10p8---------------------|
G|-------------------------------------------------------------|
D|------------------------------------------1312101212b~r1010--|
A|-------------------------------------------------------------|
E|-------------------------------------------------------------|
[ Tab from: http://www.guitartabs.cc/tabs/s/spacehog/cruel_to_be_kind_tab_ver_2.html ]
E|-------------1515----1515-15b-1512131415-14br12\8-10br8\8----||
B|----88108-15b-----15b-------------------------------------8~\||
G|---9---------------------------------------------------------||
D|-10----------------------------------------------------------||
A|-------------------------------------------------------------||
E|-------------------------------------------------------------||
                                     Here's The Order:
                                  Intro/Chorus: (00:00)-5x
Fill 1:                              Fill 1:    (00:18)-1x
E|---------------------------||      Verse:     (00:22)-7x
B|---------------------------||      Fill 2:    (00:47)-1x
G|-----------12121210101012\-||   Intro/Chorus: (00:51)-3x
D|-1010~\7-7-12121210101012\-||      Fill 1:    (01:02)-1x
A|-1010~\7-7-101010 8 8 810\-||      Verse:     (01:05)-7x
E|- 8 8p05-5-----------------||      Fill 2:    (01:31)-1x
                                  Intro/Chorus: (01:34)-3x
Fill 2:                              Fill 2:    (01:45)-1x 
E|------------------||                Solo:     (01:49)-1x mute 
B|------------------||               Verse:     (02:03)-7x
Comments