Space - Avenging Angels Chords & Tabs

 

Avenging Angels Chords & Tabs

Space Chords & Tabs

Version: 2 Type: Bass Tab 0 ratings
1 star 2 stars 3 stars 4 stars 5 stars
comments

Avenging Angels Bass Tab

   
This is right, love u all
xxx


E--------------------------------------|
A-5-5-9-9-8-8---3-555555555555-----8-7-|
D-------------6----------------6-6-----|
G--------------------------------------|
[ Tab from: http://www.guitartabs.cc/tabs/s/space/avenging_angels_btab_ver_2.html ]
E--------------------------------------------------------------------|
A-5-5-5-5-3-3-3-3-3-5-5-5-5-3-3-3-3-6666666666666666-333333333333333-|
D--------------------------------------------------------------------|
G--------------------------------------------------------------------|

E-5-5-9-9-8-8---3-------------------------6-6-----|
A-------------6---5-5-5-5-9-9-9-9-8-8-8-8-----8-7-|
D-------------------------------------------------|
G-------------------------------------------------|

You guy's will have to figure the order yourselves ;p
Comments