Soziedad Alkoholika - Piedra Contra Tijera Chords & Tabs

 

Piedra Contra Tijera Chords & Tabs

Soziedad Alkoholika Chords & Tabs

Version: 1 Type: Tab 0 ratings
1 star 2 stars 3 stars 4 stars 5 stars
comments

Piedra Contra Tijera Tab

Esta canción, como todas las de este grupo, se toca bajando la afinación
de la guitarra un tono. AUPA S.A!!!!

intro (x2)

---------------------------------------------------|
---------------------------------------------------|
---------------------------5-5---2-2-2-2-2-2-2-2---|
---5-5---7-7-7-7-7-7-7-7---3-3---2-2-2-2-2-2-2-2---|
---3-3---5-5-5-5-5-5-5-5---------------------------|
---------------------------------------------------|


---------------------------------------------------|
---------------------------------------------------|
---5-5---------------------------------------------|
---3-3---7-7-7-7-7---5-5-5-5-5---------------------|
---------5-5-5-5-5---3-3-3-3-3---5-5-5-5-5-5-5-5---|
---------------------------------3-3-3-3-3-3-3-3---|

Estrofa (x2)

           /P.M          /           /P.M                 /
--------------------------------------------------------------|
--------------------------------------------------------------|
-----------------------------5-5---2-/2-2-2-2-2-2-2-2-2-2-/---|
---5-5---7-/7-7-7-7-7-7-7/---3-3---2-/2-2-2-2-2-2-2-2-2-2-/---|
---3-3---5-/5-5-5-5-5-5-5/------------------------------------|
--------------------------------------------------------------|
           /Quieren cortarnos la lengua

[ Tab from: http://www.guitartabs.cc/tabs/s/soziedad_alkoholika/piedra_contra_tijera_tab.html ]
   /P.M                                    /
-----------------------------------------------|
-----------------------------------------------|
-----------------------------------------------|
---/5-5-5-5-5-5-5-5-5-5-5----------------------|
---/3-3-3-3-3-3-3-3-3-3-3---5-5-5-5-5-5-5-5/---|
----------------------------3-3-3-3-3-3-3-3/---|
  Con la tijera de la intransigencia

Intro (Una vez)

Estrofa (x2) [Quieren callar nuestra voz...]

Estribillo (x2)

---------------------------------------------------|
---------------------------------------------------|
---------------------------------------------------|
---2-2---4-4-4-4-4-4-4-4-4-4-4---5-5-5-5-5-5-5-5---|
---2-2---4-4-4-4-4-4-4-4-4-4-4---5-5-5-5-5-5-5-5---|
---------------------------------------------------|
 Quieren taparnos la boca


---------------------------------------------------|
---------------------------------------------------|
---------------------------------------------------|
---7-7---4-4-4-4-4-4-4-4-4-4-4---------------------|
---5-5---2-2-2-2-2-2-2-2-2-2-2---4-4-4-4-4-4-4-4---|
---------------------------------2-2-2-2-2-2-2-2---|
 Para que nadie nos pueda escuchar


todavía sigue pero es toda la cancion igual, es cuestion
de poner un poquito de oido. Como veis no tiene nada, mu fasil ;-)
espero que os guste. Asta otra!!!!
Comments