Soyka And Yanina - Tolerancja Chords & Tabs

 

Tolerancja Chords & Tabs

Soyka And Yanina Chords & Tabs

Version: 1 Type: Tab 0 ratings
1 star 2 stars 3 stars 4 stars 5 stars
comments

Tolerancja Tab

   
#----------------------------------PLEASE NOTE---------------------------------#
#This file is the author's own work and represents their interpretation of the #
#song. You may only use this file for private study, scholarship, or research. #
#------------------------------------------------------------------------------##
From: Dariusz Sitko 

Group                          Soyka & Yanina
Title                            Tolerancja


Intro x4

|-2-3-2-0-0-----------------------|
|-3---3---2-----------------------|
|-2---2---2-----------------------|
|-0---0---2-----------------------|
|-----------------------2-0-------|
|-----------------3-2-3-----------|


Dlaczego nie mowimy o tym co nas boli otwarcie   | D | D | A | A |
Budowa sciany wokol siebie marna sztuka          | A | A | D | D |
Wrazliwe slowo, czuly dotyka wystarcza           | D | D | A | A |
Czasami tylko tego pragne, tego szukam           | A | A | D A | D |
[ Tab from: http://www.guitartabs.cc/tabs/s/soyka_and_yanina/tolerancja_tab.html ]
   Na mily Bog                                   | D A | A |
   Zycie nie tylko po to jest by brac            | D G | A |
   Zycie nie po to by bezczynnie trwac           | D G | A |
   I aby zyc siebie samego trzeba dac            | D | A |

Problemy Twoje, moje, nasze boje, polityka
A przeciez kazdy wlos jak nasze lata policzony
Kto jest bez winy niechaj pierwszy rzuci kamien, niech rzuci
Daleko raj gdy na czlowieka sie zamykam

   Na mily Bog
   Zycie nie tylko po to jest by brac
   Zycie nie po to by bezczynnie trwac
   I aby zyc siebie samego trzeba dac

Outro

|-2-3-2-0-0-----------------------|
|-3---3---2-----------------------|
|-2---2---2-----------------------|   x3
|-0---0---2-----------------------|
|-----------------------2-0-------|
|-----------------3-2-3-----------|

|-2-3-2-0-0-----------------------|-2--|
|-3---3---2-----------------------|-3--|
|-2---2---2-----------------------|-2--|
|-0---0---2-----------------------|-0--|
|-----------------------2-0---0-4-|----|
|-----------------3-2-3-----3-----|----|
Comments