Southfm - Dear Claudia Chords & Tabs

 

Dear Claudia Chords & Tabs

Southfm Chords & Tabs

Version: 1 Type: Tab 0 ratings
1 star 2 stars 3 stars 4 stars 5 stars
comments

Dear Claudia Tab

   
                ********************************************
                ***              SouthFM                 ***
                ***            Dear Claudia              ***
_______________ ********************************************
|P.M.=Palm Mute|
|~=hold note   |          
----------------
             hey,this is a pretty good song,i tabbed it in
standard tuning,im not sure its 100% but its good,so if u have
corrections click the correct tab button on the top,rate this tab
it took a long time to do..have fun
Intro x4
e---------------
b---------------
g-8-8-9-------9-
d-9-9-9-9-9-9-9-
a-7-7-7-7-7-7-7-
E---------------

Verse
Guitar 1
"Dear Claudia"...
e-----------------------------------------------------------
b---------------------------4-4-4-4-5-5-5-5-5-4-4-4-5-5-5-5-
g-8-8-9-----9-8-8-9-----9-4-4-4-4-4-4-4-4-4-4-4-4-4-4-4-4-4-
d-9-9-9-9-9-9-9-9-9-9-9-9-2-2-2-2-2-2-2-2-2-2-2-2-2-2-2-2-2-
a-7-7-7-7-7-7-7-7-7-7-7-7-0-0-0-0-0-0-0-0-0-0-0-0-0-0-0-0-0-
E-----------------------------------------------------------


Guitar 2 x2-Dist 
"And you do it so carelessly"
e-----------------------------------------------
b-----------------------------------------------
g-----------------------------------------------
d-------------------------2-2-2-2-2-2-2-2-2-2-2-
a-2-2-2-2-2-2-2-2-2-2-2-2-0-0-0-0-0-0-0-0-0-0-0-
E-0-0-0-0-0-0-0-0-0-0-0-0-----------------------
P.M.********************************************

Prechorus
e---------------------------------
b---------------------------------
g---------------------------------
d---------------------------------
a--------6-6-6-6-6-6-6-7-7-7-7-9--
E-slide--4-4-4-4-4-4-4-5-5-5-5-7--
P.M.    **********************

Chorus-dist.
e-----------------------------------------------------------
b---------------------------4-4-4-4-5-5-5-5-5-4-4-4-5-5-5-5-
g-8-8-9-----9-8-8-9-----9-4-4-4-4-4-4-4-4-4-4-4-4-4-4-4-4-4-
d-9-9-9-9-9-9-9-9-9-9-9-9-2-2-2-2-2-2-2-2-2-2-2-2-2-2-2-2-2-
a-7-7-7-7-7-7-7-7-7-7-7-7-0-0-0-0-0-0-0-0-0-0-0-0-0-0-0-0-0-
E-----------------------------------------------------------

Verse 2
e------------------------------------
b------------------------------------
g-11-11-11-9-9-9-9-9-8-8-8-9-9-9-9-9-
d--9--9--9-9-9-9-9-9-9-9-9-9-9-9-9-9-
a--7--7--7-7-7-7-7-7-7-7-7-7-7-7-7-7-
E------------------------------------
 then
e-2-2-2-------------------------
b-x-x-x-5-5-5-5-4-4-4-5-5-5-5---
g-x-x-x-4-4-4-4-4-4-4-4-4-4-4---
d-2-2-2-2-2-2-2-2-2-2-2-2-2-2---
a-0-0-0-0-0-0-0-0-0-0-0-0-0-0---
E-------------------------------

Prechorus
e---------------------------------
b---------------------------------
g---------------------------------
d---------------------------------
a--------6-6-6-6-6-6-6-7-7-7-7-9--
E-slide--4-4-4-4-4-4-4-5-5-5-5-7--
P.M.    **********************
[ Tab from: http://www.guitartabs.cc/tabs/s/southfm/dear_claudia_tab.html ]
Chorus-dist.
e-----------------------------------------------------------
b---------------------------4-4-4-4-5-5-5-5-5-4-4-4-5-5-5-5-
g-8-8-9-----9-8-8-9-----9-4-4-4-4-4-4-4-4-4-4-4-4-4-4-4-4-4-
d-9-9-9-9-9-9-9-9-9-9-9-9-2-2-2-2-2-2-2-2-2-2-2-2-2-2-2-2-2-
a-7-7-7-7-7-7-7-7-7-7-7-7-0-0-0-0-0-0-0-0-0-0-0-0-0-0-0-0-0-
E-----------------------------------------------------------

Breakdown
part one-guitar 1
e------------------------------------------------
b------------------------------------------------
g------------------------------------------------
d-6-6-6-6-6-6-6-6-6-6-6--------------------------
a-4-4-4-4-4-4-4-4-4-4-4--7-7-7-7-7-7-7-7-7-7-7-7-
E------------------------5-5-5-5-5-5-5-5-5-5-5-5-
P.M.*******************    *********************

e-------------------
b-------------------
g-------------------
d-----------------4-
a-2-2-2-2-2-2-2-2-2-
E-0-0-0-0-0-0-0-0---
P.M.*************

guitar 2
e---------------------
b---------------------
g-9-8-6-4-9-8-6----4~-
d----------------7----
a---------------------
E---------------------



Part two-guitar 1
e-----------
b-------0---
g----12-----
d-----------
a-----------
E-12--------

guitar 2
e--------
b--------
g-------- x2
d--------
a-4---7--
E---5---7

e---------------------------------
b---------------------------------
g---------------------------------
d-6-6-6-6---------9-9-9-9---------
a-4-4-4-4-7-7-7-7-7-7-7-7-9-9-9-9-
E---------5-5-5-5---------7-7-7-7-
P.M.***   *****   *****   *****


Prechorus
e---------------------------------
b---------------------------------
g---------------------------------
d---------------------------------
a--------6-6-6-6-6-6-6-7-7-7-7-9--
E-slide--4-4-4-4-4-4-4-5-5-5-5-7--
P.M.    **********************

Chorus-dist.
e-----------------------------------------------------------
b---------------------------4-4-4-4-5-5-5-5-5-4-4-4-5-5-5-5-
g-8-8-9-----9-8-8-9-----9-4-4-4-4-4-4-4-4-4-4-4-4-4-4-4-4-4-
d-9-9-9-9-9-9-9-9-9-9-9-9-2-2-2-2-2-2-2-2-2-2-2-2-2-2-2-2-2-
a-7-7-7-7-7-7-7-7-7-7-7-7-0-0-0-0-0-0-0-0-0-0-0-0-0-0-0-0-0-
E-----------------------------------------------------------

Guitar 2(not correct amount of hits)
e-----------------------------------------------------------
b-----------------------------10-10-10-9-9-9-10-10-10-9-9-9-
g-8-8-8-8-9-9-9-9-11-11-11-11-------------------------------
d-----------------------------------------------------------
a-----------------------------------------------------------
E-----------------------------------------------------------

e------------------------------------------------------------------
b----------------------------9-9-9-9-10-10-10-9-9-9-12-12-12-12-12-
g-8-8-8-8-9-9-9-911-11-11-11---------------------------------------
d------------------------------------------------------------------
a------------------------------------------------------------------
E------------------------------------------------------------------

Ending
after guitar 2 plays the kinda solo thing play
e-------------
b-------------
g-------------
d-------------
a-7-6-7-6-2~~-
E-5-4-5-4-0~~-

Well thats it,check out some of the other tabs i made,rate this one it
took a long time to do,l8r
Comments