Southborder - Love Of My Life Chords & Tabs

 

Love Of My Life Chords & Tabs

Southborder Chords & Tabs

Version: 2 Type: Tab 0 ratings
1 star 2 stars 3 stars 4 stars 5 stars
comments

Love Of My Life Tab

   
Love Of My Life Tab by Southborder, www.Ultimate-Guitar.Com

love of my life
south border
tabbed by: mark lavalle
mark_des22@yahoo.com
           H                                 NH                  H
E-----------------|-6---5---3---1-3-|-0------|-------------------------|
B-5---6---5^6-6---|-----------1-----|-5------|-10----11----10^11-11----|
G---5---5-------5-|---5---5---------|-0------|----10----10----------10-|
D-8---7---8---7---|-5---3---2---0---|-5----------|-13----12----13----12----|
A-----------------|-----------------|-3----------|-------------------------|
E-----------------|-----------------|------------|-------------------------|
        tr                      H
E-10----8^10----13-------|-------------------|-3---5---7---10----|
B------------11----10----|---6-6^8-6---6-8-6-|-3---6---8---6-----|
G----10---------------10-|-7---------5-------|-0---5---0---0-----|
D-8-----7----------------|-8-----------------|-0---0---0---(0)---|
A------------10----8-----|-8---------0-------|-2-----------------|
E------------------------|-6-----------------|-3-----------------|

E-------0-------0-|-----------------|-------1-----1---|-3-3-3-3-3-3-3-3-|
B-1---1---1-------|-------1-0---0---|-----3---3-----3-|-3---3---3---3---|
G---0-------0-----|-----2-----2---2-|---2-------2-----|-----------------|
D-------------2---|---2-------------|-0---------------|-------------0---|
A-3-------------3-|-0---------------|-----------------|-----0---2-------|
E-----------------|-----------------|-----------------|-3---------------|

E-0---------0-----|---------1-------|-----1-1-----0---|-----------------|
B---1---------1---|-----------------|-----3-3-----1---|-3---------------|
G-----0-3-------3-|-------2---------|---2-------------|---3---3-------2-|
D-------2---------|-----3-----------|-0---------2-----|-----3-------3---|
A-3-----3---------|---3-------------|---------0-----0-|-1---------3-----|
E-----------------|-1---------------|-----------------|---------1-------|

                                                                 H
E---------1---3---3---|-----0-----------|-10--8---6-8-----|-------------------|
B-3---1-----3-3-----3-|-1-----1-------10|-------------10--|---6-6^8-6---6-8-6-|
G---3---2-----0-------|---0---------10--|---10--10------10|-7---------5-------|
D---------0---0-------|-----------10----|-8---7---5-------|-8-----------------|
A-1---0---------------|-3-------8-------|-------------8---|-8---------0-------|
E---------------------|-----------------|-----------------|-6-----------------|

                                              tr         P
E-3---5---7---10--|-------0---------|-----------------|-1^0-1-------1---|
B-3---6---8---6---|-1---1---1-----3-|-1-----1-0^1---0-|-------3-------3-|
G-0---5---0---0---|---0-------0-----|---2--------2----|---------2-------|
D-0---0---0---(0)-|-------------2---|-----2-------2---|-0---------0-----|
A-2---------------|-3-------------2-|-0---------------|-----------------|
E-3---------------|-----------------|-----------------|-----------------|

E-3-3-3-3-3-3-3-3-|-0---------0-----|---------1-----1-|---1-1-1---0-0-0-|
B-3---3---3---3---|---3-1-1-----1---|-------1---1-----|---3-3-3---1-1-1-|
G-----------------|-------3-------3-|-----2-------2---|---2-2-2---------|
D-------------0---|-------2---------|-----3-----------|-0---------2-2-2-|
A-----0---2-------|-3-----3---------|---3-------------|---------0-------|
E-3---------------|-----------------|-1---------------|-----------------|

E---------1-----1-|---------1---3---3---|-0-0-----------1-1---1---|
B-3-----3-1-1---1-|-3---1-----3-3---3-3-|-1---1---------1-1---1---|
G---3---------2---|---3---2-----0-------|-0-----0-----------------|
D-----3-----------|---------0---0-------|-2-----------3-----------|
A-1---------------|-1---0---------------|-3---------3-------------|
E---------1-------|---------------------|---------1---------------|

E-----1-------1---|-------0---------|-----------------|-1-----1---1-----|
B-------3-------3-|-----1-----1-----|-------3-----3---|-1-----1---1---1-|
G---2-------2-----|-----------------|-----3---------3-|-2-----2---2---1-|
D-0---------------|---2---------2---|---3-------3-----|-3---------------|
A-----------------|-0-------------0-|-1---------------|-3-------0---4---|
E-----------------|-----------------|-----------------|-1---3-----------|

            H P
E-------1--0^1^0--|-------5-------|-----------------|---------3-----3-|
B-----3---3-----3-|-------5-------|-1-----1-------1-|-------3---3-----|
G---2------------2|-----5-----5---|-2---2-----2-----|-----3-------3---|
D-0---------------|---7---------7-|---0---------0---|---5-------------|
A-----------------|-0-------------|-----------------|-----------------|
E-----------------|---------------|-2---------------|-3---------------|
[ Tab from: http://www.guitartabs.cc/tabs/s/southborder/love_of_my_life_tab_ver_2.html ]
                                       H                              H
E-8---8---8---8---|-----------------|-----------------|------------0-0^2-|
B-8---8---8---8---|-8-----8-7---8---|-7^8-8---7---7---|-7---7-----3------|
G-9---9---9---9---|---7-------7---7-|-------7---7---7-|---7---7--2-------|
D-10--10--10--10--|-9---9---10--9---|-10--9---10------|---------0--------|
A-10--X---X---10--|-----------------|-----------------|------------------|
E-8---10--12--8---|-----------------|-----------------|------------------|

E-----8---7-------|-----8-10-7------|---7-7---8-8---10-10--8-7-|
B-------7---8-----|---7--------8----|---8-8---8-8---7--7---7-8-|
G-0-------0-------|-0--------0------|-0-----0-----0------0-----|
D-----------------|-----------------|--------------------------|
A-----------------|-----------------|--------------------------|
E-----------------|-----------------|--------------------------|

                   H P        H
E-7-----7-----|-8-7^8^7----------|-------------|---------X---|
B---7-----7---|---------10-8-7^8-|-8-------8---|-7-------X---|
G-6---6-----6-|------------------|---7---7-----|---9-----X---|
D-------------|------------------|-----9-------|-----9---X---|
A-------------|------------------|-7-----------|-7-------X---|
E-------------|------------------|-------------|---------X---|

E---------5---|-----------5-|-------------|-------0-----|-------------|
B-7-----8-----|-5-----5-7---|-5-----5-7-8-|-8-------8---|-7-----------|
G---7---------|---5---------|---6---------|---7-------7-|---5---------|
D-----7-------|-----5-------|-----7-------|-----7-------|-----7-------|
A-5-----------|-3-----------|-------------|-5-----------|-5-----------|
E-------------|-------------|-------------|-------------|-------------|
         S
E-----------3-3-|-------------|-------0-----|-------3-----|-------------|
B-7-7-7-7/8-3-3-|-0---1---3---|-5-------5---|-3-------3---|-1-----3-1---|
G-----------0-0-|-------------|---5---------|---0---------|---2---------|
D---------------|-------------|-----5-------|-----0-------|-----2-------|
A---------------|-----0---2---|-3-----------|-2-----------|-0-----------|
E-----------3-3-|-3-----------|-------------|-------------|-------------|

E-------------|-------0-----|-------3-----|-------0-----|-------0-----|
B-0---1---3---|-5-------5---|-3-------3---|-3-------3---|-3-------3---|
G-------------|---5---------|---0---------|---0-------0-|---0-------0-|
D-------------|-----5-------|-----0-------|-----2-------|-----2-------|
A-----0---2---|-3-----------|-2-----------|-0-----------|-0-----------|
E-3-----------|-------------|-------------|-------------|-------------|

   H P P   H P P   H P P
E--------------------------------|----------------------|
B-2^3^2^0-2^3^2^0-2^3^2^0--2-3-5-|-End solo-------------|
G--------------------------------|----------------------|
D--------------------------------|----------------------|
A--------------------------------|----------------------|
E--------------------------------|----------------------|

E-------2-----|-------2-----|-------5-----|-------------|-------3-----|
B---------2---|---------3---|---------5---|-------7-----|-5-------5---|
G-------------|-----4-------|-------------|-----7---7---|---5-------5-|
D-----4-------|---4---------|-----7-------|---7-------7-|-----5-------|
A---4---------|-2-----------|---7---------|-5-----------|-3-----------|
E-2-----------|-------------|-5-----------|-------------|-------------|

E-3---3---3---3---|-1-----1---------|---------1-----1-|---------1---3---3---|
B-3-----3---2---2-|---3-----------1-|-------3---1-----|-3---1-----3-3-----3-|
G-4---------------|-----2-------2---|-----3-------2---|---3---2-----0-------|
D-5---------------|-0---------2-----|---3-------------|---------0---0-------|
A-5-------0-------|---------0-------|-1---------------|-1---0---------------|
E-3---------------|-----------------|---------1-------|---------------------|

                   S                                     S
E-----0-----------|-----0---|-------1-----1---|---------3/5-3-1-0-----|
B-1-----1---------|/8-6---2-|-3---3-----3-----|-------1-----------3-1-|
G---0-----------2-|-----0---|---2-----2-----2-|-----2-----------------|
D-------------3---|/8-7---2-|-0---------------|---2-------------------|
A-3---------3-----|---------|-----------------|-0---------------------|
E---------1-------|---------|-----------------|-----------------------|

E-----3-------1---|---------1---2---|---3---3---3--3--3--------------|
B-3-----3-2-----2-|-1---------1---3-|---3---3---3--3--3--------------|
G-3-------3-------|-2---------------|---0---0---0--0--0--------------|
D-5-------3-------|-3-----------0---|--------------------------------|
A-5-------1-------|-0---------------|-------2------3-----------------|
E-3---------------|-----------------|-3------------------------------|
Comments