Southborder - Kahit Kailan Chords & Tabs

 

Kahit Kailan Chords & Tabs

Southborder Chords & Tabs

Version: 4 Type: Tab 0 ratings
1 star 2 stars 3 stars 4 stars 5 stars
comments

Kahit Kailan Tab

KAHIT KAILAN by Southborder
Tabbed by: Jan-Jan C. 
Standard Tunning: [eBGDAE]

intro
e|---4---5--------4--------2---0------2-----0-------2---0------2-----0---|
B|----5----7h9-5---------2----0-----2------0------2----0-----2------0----|
G|-----4---------4-------------------------------------------------------|
D|-----------------------0----------0-------------0----------0-----------|
A|---0---------4---------------------------------------------------------|
E|-----------------------------------------------------------------------|
[ Tab from: http://www.guitartabs.cc/tabs/s/southborder/kahit_kailan_tab_ver_4.html ]
e|---4---5-4------4--------2---0------2-----0-------2---0------2-----0---|
B|----5---5----5---------2----0-----2------0------2----0-----2------0----|
G|-----4---------4-------------------------------------------------------|
D|-----------------------0----------0-------------0----------0-----------|
A|---0---------4---------------------------------------------------------|
E|-----------------------------------------------------------------------|

Just wanna say hi to Noel,lexter and marc....
Hope to see you soon...Lets Play Ball.....

it is just an intro hope you like it!!!!!
have a nice tunning... 
Comments