Southborder - Kahit Kailan Chords & Tabs

 

Kahit Kailan Chords & Tabs

Southborder Chords & Tabs

Version: 2 Type: Tab 0 ratings
1 star 2 stars 3 stars 4 stars 5 stars
comments

Kahit Kailan Tab

intro
e|--------------------------------------------------------------------|
B|--7-----------7h8---5h7---------------6--------4--------6--------4--|
G|--------0------------------7----------------------------------------|
D|-----0----------------------------7-------5---------7-------5-------|
A|--8-----------------0------0----------------------------------------|
E|--------------------------------------------------------------------|

[ Tab from: http://www.guitartabs.cc/tabs/s/southborder/kahit_kailan_tab_ver_2.html ]
e|-------------------------------------------------------------------------------------|
B|-----------0--1----------1h3----1--0----1--------------------------------------------|
G|-----------------0-------------------------------------------------------------------|
D|------2-------------2----------------------------------------------------------------|
A|---3-------------------------------------3-------------------------------------------|
E|-------------------------------------------------------------------------------------|

nagtatanong ang isip..........

that's it for now..im not in the mood to make a tab today..e-mail me if you want the
copy of this song..i'll gonna send it to you right away..it's real..no kidding..i
got the tab of this song..e-mail me at nickboem17@yahoo.com..it tooks me a week
to get the exact tab of this song..and i got it..umh..don't forget to add me on friendster..i
only send tab to those tab maniac found on my friends list..
Comments