Southborder - Kahit Kailan Chords & Tabs

 

Kahit Kailan Chords & Tabs

Southborder Chords & Tabs

Version: 1 Type: Tab 0 ratings
1 star 2 stars 3 stars 4 stars 5 stars
comments

Kahit Kailan Tab

Kahit Kailan by Southborder

#*#*#*#*#*#*#*#*#*#*#*#*#*#*#*#*#*#*#*#
---------------------------------------
#*#*#*#*#*#*#*#*#*#*#*#*#*#*#*#*#*#*#*#
[ Tab from: http://www.guitartabs.cc/tabs/s/southborder/kahit_kailan_tab.html ]
------------Kahit Kailan---------------
-----------by Southborder--------------
---------tabbed by:Kriselle Viray------
#*#*#*#*#*#*#*#*#*#*#*#*#*#*#*#*#*#*#*#
---------------------------------------
#*#*#*#*#*#*#*#*#*#*#*#*#*#*#*#*#*#*#*#

Intro:

e---4-5-4------2-0-2-0----
b---------5---2-0-2-0-----
g-------------------------
d-------------------------
a-------------------------
E-------------------------

e---4-5-4---------2-0-2---
b---------5---2-1--0--2---
g-------------------------
d-------------------------
a-------------------------
E-------------------------
Comments