South Fm - Dear Claudia Chords & Tabs

 

Dear Claudia Chords & Tabs

South Fm Chords & Tabs

Version: 1 Type: Tab 0 ratings
1 star 2 stars 3 stars 4 stars 5 stars
comments

Dear Claudia Tab

Artist: South FM
Song: Dear Claudia
Album: Drama Kids
Submitted by: Rudy
Website: www.geocities.com/creed989

Awesome song! Sounds even better on acoustic!


**Number of strokes not indicated**

Intro/verse(clean)
==============

e|-----x-x-x-x-x-x-x-x-x-x-x-x-x-x
B|-----x-x-x-x-x-x-x-x-x-x-x-x-x-x
G|-----8-8-8-9-9-9-9-8-8-8-9-9-9-9
D|-----9-9-9-9-9-9-9-9-9-9-9-9-9-9
A|-----7-7-7-7-7-7-7-0-0-0-0-0-0-0
E|-----0-0-0-0-0-0-0-0-0-0-0-0-0-0
       

Pre-Chorus(distortion) "I will let you in before you break yourself"
===============

e|-----x-x-x-x-x-x-x-x-x-x-x-x-x
B|-----x-x-x-x-x-x-x-x-x-x-x-x-x
G|-----x-x-x-x-x-x-x-x-x-x-x-x-x
D|-----6-6-6-6-6-6-6-6-7-7-7-7-9
A|-----6-6-6-6-6-6-6-6-7-7-7-7-9
E|-----4-4-4-4-4-4-4-4-5-5-5-5-7


Chorus(distortion)
============

e|-------------------------------------------------
B|-------------------------------------------------
G|---8-8-8-8--9-9-9-9--8-8-8-8--9-9-9-9------------
D|---9-9-9-9--9-9-9-9--9-9-9-9--9-9-9-9--7-7-7-7-7-
A|---7-7-7-7--7-7-7-7--7-7-7-7--7-7-7-7--7-7-7-7-7-
E|---0-0-0-0--0-0-0-0--0-0-0-0--0-0-0-0--5-5-5-5-5-

Verse(clean)
============

e|-----x-x-x-x-x-x-x-x-x-x-x-x-x-x
B|-----x-x-x-x-x-x-x-x-x-x-x-x-x-x
G|-----8-8-8-9-9-9-9-8-8-8-9-9-9-9
D|-----9-9-9-9-9-9-9-9-9-9-9-9-9-9
A|-----7-7-7-7-7-7-7-0-0-0-0-0-0-0
E|-----0-0-0-0-0-0-0-0-0-0-0-0-0-0

Pre-Chorus(distortion) "I will let you in before you break yourself"
===============

e|-----x-x-x-x-x-x-x-x-x-x-x-x-x
B|-----x-x-x-x-x-x-x-x-x-x-x-x-x
G|-----x-x-x-x-x-x-x-x-x-x-x-x-x
D|-----6-6-6-6-6-6-6-6-7-7-7-7-9
A|-----6-6-6-6-6-6-6-6-7-7-7-7-9
E|-----4-4-4-4-4-4-4-4-5-5-5-5-7

Chorus(distortion)
============
[ Tab from: http://www.guitartabs.cc/tabs/s/south_fm/dear_claudia_tab.html ]
e|-------------------------------------------------
B|-------------------------------------------------
G|---8-8-8-8--9-9-9-9--8-8-8-8--9-9-9-9------------
D|---9-9-9-9--9-9-9-9--9-9-9-9--9-9-9-9--7-7-7-7-7-
A|---7-7-7-7--7-7-7-7--7-7-7-7--7-7-7-7--7-7-7-7-7-
E|---0-0-0-0--0-0-0-0--0-0-0-0--0-0-0-0--5-5-5-5-5-


(Distortion)"I will lay you fears, right..."
e|--------------------------------------|-----------------
B|--------------------------------------|-----------------
G|-----6-6-6-6-6-6-6-6------------------|-----------------
D|-----6-6-6-6-6-6-6-6--7-7-7-7-7-7-7-7-|--2-2-2-2-2--9~-
A|-----4-4-4-4-4-4-4-4--7-7-7-7-7-7-7-7-|--2-2-2-2-2--9~-
E|----------------------5-5-5-5-5-5-5-5-|--0-0-0-0-0--7~-
                                        |
       In the background                |
     e|----------|---------             |
     B|----------|---------             |
     G|--9-8-6---|-9-8-6---             |
     D|--------7-|-------6-             |
     A|----------|---------             |
     E|----------|---------             |


Soft part(clean palm mute)
==========

e|------------
B|------------
G|------11----
D|----------9-
A|---7--------
E|------------

Slow build up(palm mute distortion)
===================================

e|----------------------------------
B|----------------------------------
G|----------------------------------
D|--2-2-2/--9-9-9--2-2-2/--9-9-9--
A|--2-2-2/--9-9-9--2-2-2/--9-9-9--
E|--0-0-0/--7-7-7--0-0-0/--7-7-7--

Pre-Chorus(distortion) "I will let you in before you break yourself"
===============

e|-----x-x-x-x-x-x-x-x-x-x-x-x-x
B|-----x-x-x-x-x-x-x-x-x-x-x-x-x
G|-----x-x-x-x-x-x-x-x-x-x-x-x-x
D|-----6-6-6-6-6-6-6-6-7-7-7-7-9
A|-----6-6-6-6-6-6-6-6-7-7-7-7-9
E|-----4-4-4-4-4-4-4-4-5-5-5-5-7

Chorus/Outro(distortion)
============

e|-------------------------------------------------
B|-------------------------------------------------
G|---8-8-8-8--9-9-9-9--8-8-8-8--9-9-9-9------------
D|---9-9-9-9--9-9-9-9--9-9-9-9--9-9-9-9--7-7-7-7-7-
A|---7-7-7-7--7-7-7-7--7-7-7-7--7-7-7-7--7-7-7-7-7-
E|---0-0-0-0--0-0-0-0--0-0-0-0--0-0-0-0--5-5-5-5-5-


End on
=====
e|-----
B|-----
G|-----
D|--2~-
A|--2~-
E|--0~-
Comments