South - Paint The Silence Chords & Tabs

 

Paint The Silence Chords & Tabs

South Chords & Tabs

Version: 2 Type: Tab 0 ratings
1 star 2 stars 3 stars 4 stars 5 stars
comments

Paint The Silence Tab

-----------------------------------------------------------------------------
			 PAINT THE SILENCE - South
-----------------------------------------------------------------------------
Tabbed by: Rygel
Email: rygel_daikini@hotmail.com

Ok, I tried so many times to find this tab, but I didn't. So, I got desperate and
tabbed it myself. I hope that anyone out there that find this know that South is an
amazing band ^^ Specially now that it is more known because of The O.C.

Any doubts email me ^^ Enjoy!

Tuning: Standard

Intro / Verse / Chorus [Chords]

e|-----2-----0-----0-----|
B|-----2-----2-----0-----|
G|-----2-----2-----1-----|
D|-----4-----2-----2-----|
A|-----4-----0-----2-----|
E|-----2-----0-----0-----|

Pre-chorus
[ Tab from: http://www.guitartabs.cc/tabs/s/south/paint_the_silence_tab_ver_2.html ]
e|-----------------------------------------------------|
B|-----------------5-----------3-----------------------|
G|-----2-----4-----------4-----------4-----2-----1-----|
D|-----------------------------------------------------|
A|-----------------------------------------------------|
E|-----------------------------------------------------|

Chorus

e|-----------------------------------------------------------------|
B|-----------------5-----------5-----------3-----------3-----5-----|
G|-----2-----4-----------4-----------4-----------4-----------------|
D|-----------------------------------------------------------------|
A|-----------------------------------------------------------------|
E|-----------------------------------------------------------------|

e|-----------------------------------------------------|
B|-----------------5-----------3-----------------------|
G|-----2-----4-----------4-----------4-----2-----1-----|
D|-----------------------------------------------------|
A|-----------------------------------------------------|
E|-----------------------------------------------------|
Comments