Soutaiseiriron - Miss Parallel World Chords & Tabs

 

Miss Parallel World Chords & Tabs

Soutaiseiriron Chords & Tabs

Version: 1 Type: Bass Tab 0 ratings
1 star 2 stars 3 stars 4 stars 5 stars
comments

Miss Parallel World Bass Tab

   
https://www.facebook.com/soutaiseiriron?fref=ts

1

G|---11---10-------------------------------------------------------|
D|-------------8-----------------------4---6---8---8---------------|
A|-9----8--------------------------------------------8-------------|
E|-----------6---6-6-6-4-4-6-2-2-2-2-2---4---6---6-----6-666-4-----|


G|---11---10-------------------------------------------------------|
D|-------------8-----------------------4---6---8---8---------------|
A|-9----8--------------------------------------------8---------5-6-|
E|-----------6---6-6-6-4-4-6-2-2-2-2-2---4---6---6-----6-666-4-----|

G|-------------------------------------------------|
D|---------3-44--3--4-3-44--3--4-------------------|
A|-66-4-66-----------------------4-------------5-6-|
E|---------------------------------6-6-4-4-6-4-----|

G|-------------------------------6------------------|
D|---------3-44--3--4-3-44--3--4---66-88------------|
A|-66-4-66------------------------------------------|
E|---------------------------------------4-44-6-2-2-|

repeat all of the above

2

G|--------------------------------------------------|
D|---------7----------9----------6------11/13-11----|
A|------7----------9----------6---------------------|
E|-5-5--------7-7--------4-4--------9-9-----------9-|

G|--------------------------------------------|
D|---------7----------9----------6------------|
A|------7----------9----------6---------------|
E|-5-5--------7-7--------4-4--------9-/11\----|

3
[ Tab from: http://www.guitartabs.cc/tabs/s/soutaiseiriron/miss_parallel_world_btab.html ]
G|-------------------------------------|
D|-------------------------------------|
A|-22222222-44444444-66666666----------| x2
E|----------------------------66666666-|

Repeat 1 + 2

G|--------------------------------------------------|
D|---------7----------9----------6------11/13-11----|
A|------7----------9----------6---------------------|
E|-5-5--------7-7--------4-4--------9-9-----------9-|

G|--------------------------------------------|
D|---------7----------9----------6------------|
A|------7----------9----------6---------------|
E|-5-5--------7-7--------4-4--------9-/11-----|

Repeat 3

G|---------44----------6----------8-----------|
D|-------4-----------6----------8---8---------|
A|-22222-------44444------66666---------------| x2
E|------------------------------------6666666-|

G|-------------------------------------|
D|-------------------------------------|
A|-------------------------------------|
E|-55555555-77777777-44444444-99999999-|

G|------------------------------------------------|
D|---------------------------6---------11/13\11---|
A|----------------------6-66---6------------------|
E|-55555555-77777777-44----------4-999----------9-|

G|-------------------------------------|
D|-------------------------------------|
A|-------------------------------------|
E|-55555555-77777777-44444444-99999999-|

G|------------------------------|
D|-77777777-99999999-66666666---|
A|----------------------------6-|
E|------------------------------|

repeat 3

G|---------4-4-------------6-6-------------8-8-------------|
D|-----4-4-----4-4-----6-6-----6-6-----8-8-----8-8---------|
A|-2-2-------------4-4-------------6-6---------------------| x2
E|-------------------------------------------------6666666-|

G|----------|
D|----------|
A|----------|
E|-7--------|
Comments