Sourpuss - Tabouli Chords & Tabs

 

Tabouli Chords & Tabs

Sourpuss Chords & Tabs

Version: 1 Type: Tab 0 ratings
1 star 2 stars 3 stars 4 stars 5 stars
comments

Tabouli Tab

Tabouli - Sourpuss

0.05-0.20
e|----------------------------------------------------------------|
b|--------------------------------^-------------------------------|
g|--------1-----------------3-3-3-3-3-1----------------------|
d|-----------2----------------------------------------------------|
a|--2-2--------2-2-3-3----------------------------------------|
E|----------------------------------------------------------------|

e|----------------------------------------------------------------|
b|----------------------------------------------------------------|
g|------------------------------------------------------------|
d|--5-5-5-5-5--7-7-7-7-7------------------------------------------|
a|--55-5-5-5--7-7-7-77----------------------------------------|
E|--3-3-3-3-3--5-5-5-5-5------------------------------------------|

e|----------------------------------------------------------------|
b|--------------------------------^-------------------------------|
g|--------1-----------------3-3-3-3-3-1----------------------|
d|-----------2----------------------------------------------------|
a|--2-2--------2-2-3-3----------------------------------------|
E|----------------------------------------------------------------|

e|----------------------------------------------------------------|
b|----------------------------------------------------------------|
g|------------------------------------------------------------|
d|--5-5-5-5--7-7-7-7-5-5-5-5-4------------------------------------|
a|--55-5-5--7-7-7-7-5-55-5-4----------------------------------|	
E|--3-3-3-3--5-5-5-5-3-3-3-3-2------------------------------------|

0.20-1.05
e|----------------------------------------------------------------|
b|----------------------------------------------------------------|
g|------------------------------------------------------------|
d|----------------------------7-7-5-5-4-4--[[x6]]-4h--------------|
a|--77-7-7-3-3-3-3-5------------------------------------------|	
E|--------------------7-3-3-5-------------------------------------|

e|----------------------------------------------------------------|
b|----------------------------------------------------------------|
g|------------------------------------------------------------|
d|----------------------------------------------------------------|
a|---2-2-2-2-2-2-------------2/5-5-5-5-5-5-3-3-3-3-3-3--[[x2]]|	
E|--2--------------0-3-3-3-3-3-3----------------------------------|




1.20-1.51
e|----------------------------------------------------------------|
b|----------------------------------------------------------------|
g|------------------------------------------------------------|
d|--11/-7/-12/-7/-11/-7/-11-12-14---------------------------------|
a|------------------------------------------------------------|	
E|----------------------------------------------------------------|
[ Tab from: http://www.guitartabs.cc/tabs/s/sourpuss/tabouli_tab.html ]
e|----------------------------------------------------------------|
b|----------------------------------------------------------------|
g|------------------------------------------------------------|
d|--11/-7/-12/-11-12-11-12-14-------------------------------------|
a|------------------------------------------------------------|	
E|----------------------------------------------------------------|


e|----------------------------------------------------------------|
b|----------------------------------------------------------------|
g|------------------------------------------------------------|
d|--11/-7/-12-11-14-11-12-14--[[this-line-x2]]--------------------|
a|------------------------------------------------------------|
E|----------------------------------------------------------------|

1.51-2.06
e|----------------------------------------------------------------|
b|--^^------------------------------------------------------------|
g|--16-14-11-14-[[x3]]--11-12-14-[[all-this-line-x2]]---------|
d|----------------------------------------------------------------|
a|------------------------------------------------------------|
E|----------------------------------------------------------------|

REPEAT ALL OF ABOVE EXCEPT LAST LINE!! 2.06-3.58


e|----------------------------------------------------------------|
b|----------------------------------------------------------------|
g|--[pause]-----7-5-------------------------------------------|
d|----------9-5-7-5-----------------------------------------------|
a|---------9-55-3---------------------------------------------|
E|----------7-3---------------------------------------------------|

4.05-4.12
e|----------------------------------------------------------------|
b|----------------------------------------------------------------|
g|-------11---------12-11-12-14-[[all-of-this-line-x2]]----------|
d|--9-12-----[[x3]]-----------------------------------------------|
a|------------------------------------------------------------|
E|----------------------------------------------------------------|

4.12
e|----------------------------------------------------------------|
b|--^^------------------------------------------------------------|
g|--16-14-11------11------11-12-11-12-14-[[all-of-this-line-x4]]-|
d|-----------9-12----9-12-----------------------------------------|
a|------------------------------------------------------------|	
E|----------------------------------------------------------------|


e|----------------------------------------------------------------|
b|--^^------------------------------------------------------------|
g|--16-14-11-14-[[x3]]-11-12-14------------------------------|
d|----------------------------------------------------------------|
a|------------------------------------------------------------|
E|----------------------------------------------------------------|


e|----------------------------------------------------------------|
b|--^^------------------------------------------------------------|
g|--16-14-11-14--[[x3]]--11-12-14-11-[hold]------------------|
d|----------------------------------------------------------------|
a|------------------------------------------------------------|	
E|----------------------------------------------------------------|
Comments