Soundtrack Of Our Lives - Sister Surround Chords & Tabs

 

Sister Surround Chords & Tabs

Soundtrack Of Our Lives Chords & Tabs

Version: 2 Type: Tab 0 ratings
1 star 2 stars 3 stars 4 stars 5 stars
comments

Sister Surround Tab

   
Soundtack of our Lives - Sister Surround

STANDARD TUNING (Eadgbe)

IntrO
If you wanna play the bass line play this
e-----------------------------------
b-----------------------------------
g-----------------------------------
d-----------------------------------
a-5-5-5-5-5-5-5-5-5--5-5-5-5-5-5-5--
E-----------------------------------

Guitar 1
e----------
b-------15-
g----14----
d-12-------
a----------
E----------

Guitar 2
C,C,G,G,D~ C,C,C,C,C,G,G,D~

G,G,G,D,D,D,D,C,C,C,C,F,F,F,F

Verse 1

G              D                C,F
You're a rhyme without a reason

G            D          C,F
And you know it so well

Bb        C                   
Who's the king of the season-|   
                             }power chords for these
F             D              } two lines
Well you never can tell------|
                             
G             D              C,F
Though it's so plain to see

G                       D       C,F
You think you like to be normal

G                   D      C,F
You think you're in control

Bb                 C         F        D      <-powerchords
But the action you take only makes you small

G                            D  C,F
Just like the way it should be

Chorus
Guitar 1
Bb       C      D               
Surround sister take care of me

Bb       C      D
Surround sister take care of me

Guitar 2
e-5-5-3-2-0---
b-3-3-------3-
g-------------
d-------------
a-------------
E-------------

[ Tab from: http://www.guitartabs.cc/tabs/s/soundtrack_of_our_lives/sister_surround_tab_ver_2.html ]
G,G,G,D,D,D,F,F,F,C,C,C(x2)

Verse 2
Guitar 1
The Chords are about the same as verse 1 except there is one 
less line of lyrics so where there is three lines in a row of
G,D,C,F only play 2 then keep following the chords

Guitar 2
e-15----14----14----14----13-----------
b----15----15----15----15----14--14-15-
g--------------------------------------
d--------------------------------------
a--------------------------------------
E--------------------------------------

Chorus
Guitar 1
Bb       C      D               
Surround sister take care of me

Bb       C      D
Surround sister take care of me

Guitar 2
e-5-5-3-2-0---
b-3-3-------3-
g-------------
d-------------
a-------------
E-------------

F           G           
Cuz Im not afraid to fall

F                 G
No, I'm not afraid to fall
 F                C,G
No, I'm not afraid at all


e-5-5-3-2-0---
b-3-3-------3-
g-------------\
d-------------  \ 
a-------------    \
E-------------     / x3
                 /
C,Cb            /

Guitar 1(play while guitar 2 is playing)
e----------
b-------15-
g----14----
d-12-------
a----------
E----------

Guitar 2(x2)
C,C,G,G,D~ C,C,C,C,C,G,G,D~

Chorus
Guitar 1
Bb       C      D               
Surround sister take care of me

Bb       C      D
Surround sister take care of me

Guitar 2
e-5-5-3-2-0---
b-3-3-------3-
g-------------
d-------------
a-------------
E-------------

F               G        Bm,C,D  hold last D Chord
Cause I'm not afraid to fall

Well thats the whole song rate this tab it took a long time ,comments
or corrections click on the correct tab button on the top,thanks
Comments