Soundgarden - Spoonman Chords & Tabs

 

Spoonman Chords & Tabs

Soundgarden Chords & Tabs

Version: 5 Type: Tab 0 ratings
1 star 2 stars 3 stars 4 stars 5 stars
comments

Spoonman Tab

Tabbed by:enjoyincubus69
Drop D tuning

intro/verse
--------------------------------------------------------------------------|
--------------------------------------------------------------------------|
--------------------------------------------------------------------------|
-10h12--12--12--12----x----12\7-----5---7\--3---0--0--3h5--5--5--0--0---0-|
-10h12--12--12--12----x----12\7-----5---7\--3---0--0--3h5--5--5--0--0---0-|
-10h12--12--12--12----x----12\7-----5---7\--3---0--0--3h5--5--5--0--0---0-|

other bit of verse
--------------------------------------------------------------------------|
--------------------------------------------------------------------------|
--------------------------------------------------------------------------|
-10h12--12--12--12----x----12\5-------------(5)----------------------(5)/-|
-10h12--12--12--12----x----12\5-------------(5)----------------------(5)/-|
-10h12--12--12--12----x----12\5-------------(5)----------------------(5)/-|

chorus
----------------------------------|
----------------------------------|
----------------------------------|
----------------------5p3---------|
------------------*-------5p3-0---|
--5p3-5p3-5p3-0-5-3/3-5-----------|

bit before solo
------------------------------------------------|
-------10---------------------------------------|
-------12brfull-10h12---------------------------|
-10h12----------------10h12---------------------|
----------------------------10--(10)------------|
------------------------------------------------|


-------------------------------------------------------------|
-------------------------------------------------------------|
-------------------------------------------------------------|
-------------------------------------------------------------|
-5p3-5p3-5p3-0----------------------------5p3-5p3-5p3-0------|
----------------3---------------------------------------5----|

------------------------------------------------------------|
-------10-------------10h13-3bfull--------------------------|
-------12brfull-10h12---------------------------------------|
-10h12------------------------------------------------------|
------------------------------------------------------------|
------------------------------------------------------------|

Solo

-(10)-----------10h13-13brfull-13p10-13-10-----------------------------|
-(13)--------------------------------------13-10h13p10h13p10-----------|
-------------------------------------------------------------12-10h12p-|
-----------------------------------------------------------------------|
-----------------------------------------------------------------------|
-----------------------------------------------------------------------|
[ Tab from: http://www.guitartabs.cc/tabs/s/soundgarden/spoonman_tab_ver_5.html ]
---------------------------------------------------------------|
----------------------13----13----13----13----13---------------|
-p10----10-10-12bfull----12----12----12----12----12-12-r-12-10-|
-----12--------------------------------------------------------|
---------------------------------------------------------------|
---------------------------------------------------------------|

---------------------------------------------------------------------------|
---------------------------------------------------------------------------|
-12-10-10------------------------------------------------------------------|
-----------------------12-12-10-12-12-10-------10-10-12bfull-(12)-(12)---r-|
-----------------------------------------12-12-----------------------------|
---------------------------------------------------------------------------|

---------------------------------------------------------|
---------------------------------------------------------|
-------10-10-12bfull-(12)----rb--rb---r-12-12-10-10-12---|b
-12-12---------------------------------------------------|
---------------------------------------------------------|
---------------------------------------------------------|

----------13------------13--------------13bfull---13p10--|
------13--13bfull----------------------------------------|
-(12)----------------------------------(13)b1/2----------|
---------------------------------------------------------|
---------------------------------------------------------|
---------------------------------------------------------|

-13p10--------------------------------------------------------------------|
-------13-13p10----10-13p10-10--------------------------------------------|
----------------12-------------12p10-12p10-12-12brfull-(12)-b-------(12)\-|
--------------------------------------------------------------------------|
--------------------------------------------------------------------------|
--------------------------------------------------------------------------|

-------------------------------------------------------------|
-------------------------------------------------------------|
-\4/7/14-14-14-14-12p11-14-14p12p11h14-14p12p11--------------|
------------------------------------------------12-10--------|
-------------------------------------------------------------|
-------------------------------------------------------------|

---------------------------10--------------------------------------|
------12b1/2-13------13-------13-(13)b2--(13)-r(13)\---------------|
-(10)--------12bfull-12-r------------------------------------------|
-------------------------------------------------------------------|
-------------------------------------------------------------------|
-------------------------------------------------------------------|
Comments