Soundgarden - Spoonman Chords & Tabs

 

Spoonman Chords & Tabs

Soundgarden Chords & Tabs

Version: 3 Type: Tab 3 ratings
1 star 2 stars 3 stars 4 stars 5 stars
comments

Spoonman Tab

Ok this is the TAB to soundgarden's song Spoonman...and it is right!

tune to drop-D.
[ Tab from: http://www.guitartabs.cc/tabs/s/soundgarden/spoonman_tab_ver_3.html ]
slide the first note into the second.       
----------------------------------------------------------------------
----------------------------------------------------------------------
----------------------------------------------------------------------
---5-7-7-7-7-5-7------------------------------------------------------
---3-5-5-5-5-3-5--7-5-7-3-0-3-5-5-0-0-0-0----------------------------
------------------7-5-7-3-0-3-5-5-0-0-0-0----------------------------

then this...   P stands for pluck
----------------------------------------------------------------------
----------------------------------------------------------------------
----------------------------------------------------------------------
---------------------5p3----------------------------------------------
-------------------------5p3-0--------------------------------------
---5p3-5p3-5p3-0-5-3--------------------------------------------------


thats it.
Comments