Soundgarden - She Likes Surprises Chords & Tabs

 

She Likes Surprises Chords & Tabs

Soundgarden Chords & Tabs

Version: 1 Type: Tab 0 ratings
1 star 2 stars 3 stars 4 stars 5 stars
comments

She Likes Surprises Tab

----------------------------------PLEASE NOTE--------------------------------#
#This file is the author's own work and represents their interpretation of the#
#song. You may only use this file for private study, scholarship, or research.#
#-----------------------------------------------------------------------------#
She Likes Surprises -- Soundgarden
From: Keith Barron 
Date: Saturday April 10, 1998

Intro Riff: 
|---10br---7-----7-----10br---7-----7-----10br---7-----7----|
|-------------8------------------8------------------8-------|
|-----------------------------------------------------------|
|-----------------------------------------------------------|
|-----------------------------------------------------------|
|-----------------------------------------------------------|

       
|---10br---7------------|
|-------------10--8-----|
|-----------------------|
|-----------------------|
|-----------------------|
|-----------------------|

Verses:                     
|---10br---7-----7-----10br--7-----7-----10br---7-----7--|
|-------------8-----------------8------------------8-----|
|--------------------------------------------------------|
|--------------------------------------------------------|
|--------------------------------------------------------|
|--------------------------------------------------------|

    
       
|---10br---7-----------|-10br---7-----7--10br---7-----7---|
|-------------10--8----|-----------8---------------8------|
|----------------------|----------------------------------|
|----------------------|----------------------------------|
|----------------------|----------------------------------|
+----------------------|----------------------------------|



|---10br---7-----7--------------------|
|-------------8-----------------------|
|-------------------------------------|
|-------------------8--8--------------|
|-------------------6--6---------11\--|
|-------------------------5--8br--9\--|

Chorus:
|----------------------------------------------------------|
|----------------------------------------------------------|
|----------------------------------------------------------|
|----------------------------------------------------------|
|--------2-3-3---------------4--5--6-----8\-5--3/-5--8\-5--|
|--1---1-------2---3---4---4---------6---6\-3--1/-3--6\-3--|
[ Tab from: http://www.guitartabs.cc/tabs/s/soundgarden/she_likes_surprises_tab.html ]
                                      
+---------------|---------------------------------------|
|---------------|---------------------------------------|
|---------------|---------------------------------------|
|---------------|---------------------------------------|
|--3/-5--8--8\--|--------2-3-3---------------4--5--6----|
+--1/-3--6--6\--|--1---1-------2---3---4---4---------6--|
     
                   
||----------------------------------||
||----------------------------------||
||o--------------------------------o||
||o--------------------------------o||
||--8\-5--3/-5--8\-5---3/-5--8--8\--||
||--6\-3--1/-3--6\-3---1/-3--6--6\--||

      
|----------------------------------------| 
|----------------------------------------| 
|----------------------------------------| 
|--6-6-6-6-6-6-6-6-8-8-8-8-8-8-8-8\-3----|
|--4-4-4-4-4-4-4-4-6-6-6-6-6-6-6-6\-1----|
|----------------------------------------| 


Break:
|-----3----3----------3-----------------8----------11--13--11--|
|--------6----3----------6-------------------------------------| 
|---------------4---------------------9----9-/-12--------------| 
|----------------------------------10-----10-/-13--------------| 
|--5---------------5-------------------------------------------|
|--3---------------3--------3-/-8------------------------------| 

+-----------10-------------3----------------------------|
|--------10----------------3----------------------------| 
|-----11-------11----------------4-----8--8-------------| 
|--12-------------12-\-----------5-----6--6-------------| 
|------------------------5----5--------------------11\--| 
+------------------------3----3-------------5--8br--9\--|



||-----------------------------|--------------------------|| 
||-----------------------------|--------------------------|| 
||o----------------------------|-------------------------o||
||o----------------------------|-------------------------o|| 
||--5\-3-/5--8--5\-3/-5\-3-----|--------------------------||
||--3\-1-/3--6--3\-1/-3\-1-----|--------------------------||

                          
|-------------------------------|-------------------| 
|-------------------------------|-------------------| 
|-------------------------------|-------------------| 
|-------------------------------|--7-7-7-7-7-7-7-7--| 
|--5\-3-/5--8--5\-3-/5-\3-------|--5-5-5-5-5-5-5-5--| 
|--3\-1-/3--6--3\-1-/3-\1-------|-------------------| 

    
|----------------------------------| 
|---------------------4--3---------| 
|---------------------3--3---------| 
|--8-8-8-8-8-8-8\-3----------------| 
|--6-6-6-6-6-6-6\-1----------------| 
|----------------------------------| 

Repeat chorus and end with the G chord.
Comments