Soundgarden - Rusty Cage Chords & Tabs

 

Rusty Cage Chords & Tabs

Soundgarden Chords & Tabs

Version: 1 Type: Tab 0 ratings
1 star 2 stars 3 stars 4 stars 5 stars
comments

Rusty Cage Tab

#----------------------------------PLEASE NOTE--------------------------------#
#This file is the author's own work and represents their interpretation of the#
#song. You may only use this file for private study, scholarship, or research.#
#-----------------------------------------------------------------------------#

Date: Fri, 3 Apr 1998 15:37:42 -0600
From: ponies2@computek.net (Keith Barron)
Subject: Rusty Cage - Soundgarden

originally by:
Date: 19 Feb 1993 18:57:42 -0700 (MST)
From: Paul Zimmerman 

Rusty Cage
Tuning - BADGBE

Intro: 
|----------------------|--------|-------------------------|-----|
|----------------------|--------|-------------------------|-----|
|-------------14h16p14-|-(14)---|-------14h16-------14h16-|-(16)|
|----------------------|--------|-------------------------|-----|
|-12/14-14h16----------|--------|-12/14-------12/14-------|-----|
|----------------------|--------|-------------------------|-----|

Hold last notes of each bar a while longer first few times.

First and Second Verses:

|-----------------------|--------------------------|
|-----------------------|--------------------------|
|-----------------------|--------------------------|
|-----------------------|--------------------------|
|-------------12h14p12--|-------12h14-------12h14--|
|-10/12-12h14-----------|-10/12-------10/12--------|

That is what Kim plays. You could also play the first two verses THIS way to
make it easier. It sounds really good but I don't think it is right.

|-----------------|-----------------|
|-----------------|-----------------|
|-----------------|-----------------|
|-7/9-9/11-7h9-7--|-7h9-7h9-7h9-7h9-|
|-----------------|-----------------| 
|-----------------|-----------------|

End of each verse:
|-------------------|---------------|---------------------------|
|-------------------|---------------|---------------------------|
|-------------------|---------------|---------------------------|
|-------------------|---------------|---------------------------|
|-------------------|---------------|---------------------------|
|-15--15--7/12--10--|-(10)----------|-6--6-5-5-3-3-0-0-3-3-3~~--|
[ Tab from: http://www.guitartabs.cc/tabs/s/soundgarden/rusty_cage_tab.html ]
Third Verse:
|-------------------------|-------------------------|
|-------------------------|-------------------------|
|-------------------------|-------------------------|
|-------------------------|-------------------------|
|-------------------------|-------------------------|
|-0--0-0-0--0-0-3-5-6-7-3-|-0--0-0-0--0-0-3-5-6-7-3-|

Play the above riff a few times and then play this when Chris starts singing
about 3 times then go to the next verse part.

|-------------------------|-------------------|------------------
|-------------------------|-------------------|------------------
|-----------------------4-|-(4)---------2-----|------------------
|-----------------------4-|-(4)---------2-----|------------------
|-----------------------2-|-(2)---------0-----|------------------
|-0--0-0-0--0-0-3-5-6-7---|-------7-6-5-----3-|-0--0-0-0-3-5-6-7-

Fourth Verse Part:
||------------------------------------------------||
||------------------------------------------------||             
||o----------------------------------------------o||          
||o----------------------------------------------o||          
||------------------------------------------------||             
||-0---3b-0--5b-0--0-3b-0-3-/6~-3b-0---0-3b-0-5---||             

and then finish up with this:

|-------------------|------------------------|
|-------------------|------------------------|                   
|---------------16~~|~(16)~~~~~~~~~~~~~------|                   
|-------------------|------------------------|                   
|-------------------|------------------------|                   
|-15--15--7/12--10--|------------------------|   

==========================================================================================================


ROOM A THOUSAND YEARS WIDE
~~~~~~~~~~~~~~~~~~~~~~~~~~
from the album BADMOTORFINGER by SOUNDGARDEN

e-mail: 9250128@bn.fnt.hvu.nl

Tune donw 1/2 a step + dropped D tuning
          ~~~~~~~~~~   ~~~~~~~~~~~~~~~~
e|--------------------------------------
B|--------------------------------------     this is repeated
G|--------------------------------------     through out the
D|--------------------------------------     whole song
A|-0---3---0--8-8-8-8-------------------
D|-0---3---0--8-8-8-8-0-0-0-0-0-0-------
                      ^^^^^^^^^^^ light PM

Comments