Soundgarden - Rhinosaur Chords & Tabs

 

Rhinosaur Chords & Tabs

Soundgarden Chords & Tabs

Version: 1 Type: Bass Tab 0 ratings
1 star 2 stars 3 stars 4 stars 5 stars
comments

Rhinosaur Bass Tab

  "Rhinosaur"	Bass Tab		
   Soundgarden
   Down on the Upside
   Transcribed by:Ktulu
   Original transcription by: Andy Aldort
   Maximum Guitar September 1997
   
   This is my first tab so have mercy.  It 
   should be alright though.  I gave the 
   riff and how many times to play it.  I 
   know it looks a little overwhelming, but
   most of it is pretty repititious.



Intro
	Riff 1			Riff 2
G|--------------------|-------------------|
D|------------8/10----|--------------8/10-|
A|-------8/10---------|---------8/10------| 
D|-8-8-6--------------|-8-8-8-6-----------|

(Intro Summary)
 Riff 1
 Riff 2
 Riff 2(X4)
 

1st Verse     Riff 3       Standing with...
G|--------------------|-------------------|
D|------------8/10----|--------------8/10-|
A|-------8/10---------|---------8/10------| 
D|-8-8\---------------|-8-8-8-6-----------|

(1st Verse Summary) 
 Riff 3(X4)

 1st Chorus		Riff 4

G|--------------------|--------------------------------|
D|--------------------|--------------------------------|
A|-8--8--8--7--7--7---|-6--6--6--5--8/10--10--10--10---| 
D|--------------------|--------------------------------|
			Riff 5
G|--------------------|--------------------------------|
D|-10-10-10--9--9--9--|-8--8--8--7---------------------|
A|--8--8--8--7--7--7--|-6--6--6--5-8/10--10--10--10----| 
D|--------------------|--------------------------------|

			Riff 6
G|--------------------|------------------------|
D|-10-10-10--9--9--9--|-8--8--8--7--------8/10-|
A|--8--8--8--7--7--7--|-6--6--6--5--8/10-------| 
D|--------------------|------------------------|

(1st Chorus Summary)
 Riff 4(X2)
 Riff 5
 Riff 6

(2nd Verse Summary)
 Riff 2(X4)
 Riff 3, Riff 2(X4)


2nd Chorus
	Only bending...		Riff 7
G|--------------------|--------------------------------|
D|-----------9--9--9--|-8--8--8--7-10/12--12--12--12---|
A|--8--8--8--7--7--7--|-6--6--6--5--8/10--10--10--10---| 
D|--------------------|--------------------------------|
			Riff 8
G|--------------------|--------------------------------|
D|-10-10-10--9--9--9--|-8--8--8--7-10/12--12--12--12---|
A|--8--8--8--7--7--7--|-6--6--6--5--8/10--10--10--10---| 
D|--------------------|--------------------------------|
			Riff 9
G|--------------------|------------|
D|-10-10-10--9--9--9--|-8--8--8--7-|
A|--8--8--8--7--7--7--|-6--6--6--5-| 
D|--------------------|------------|

(2nd Chorus Summary)
 Riff 7
 Riff 8(X2)
 Riff 9


[ Tab from: http://www.guitartabs.cc/tabs/s/soundgarden/rhinosaur_btab.html ]
Interlude
			
G|-10/12-12-10/12-12-10/12\-|------------|
D|--------------------------|------10/12-|
A|--------------------------|-8/10-------| 
D|--------------------------|------------|

G|-10/12-12-------------|-----------|
D|----------------------|-----------|
A|-----------------8----|-8---8--8--| 
D|----------6/8--8---8--|---8-------|

G|---------------|---------|----------------|----------|
D|---------------|---------|----------------|----------|
A|-8-------8-8---|-----8---|-8------8------8|-8-----8--| 
D|---8-8-8-----8-|-8-8---8-|---8--8---8--8--|---8-8----|

G|---------------|---------|----------------|----------|
D|---------------|---------|----------------|----------|
A|-----8---8-8---|---------|-8---8-----8----|-8-----8--| 
D|-8-8---8-----8-|-8-8-8-8-|---8----8----8--|---8-8----|

G|-----------|------------------|---------|----------|
D|-----------|-----7------------|---------|----------|
A|-8-------8-|-8----(8)-8-----8-|-8---8---|-8-----8--| 
D|---8--8----|---8--------8-8---|---8---8-|---8-8----|

G|------------------|-------|---------------|---------|
D|------------------|-------|---------------|---------|
A|-8-------8--8-----|-8---8-|-8---8-----8---|-8-8---8-| 
D|---8--8-------8-8-|---8---|---8---8-8---8-|-----8---|

G|-------------|--------|---------------|---------|
D|-------------|---10---|---------------|---------|
A|-8---8---8---|-8------|-8-----8-8---8-|-8---8---| 
D|---8---8---8-|------8-|---8-8-----8---|---8---8-|

G|---------------|---------|---------------|---------|
D|---------------|---------|---------------|---------|
A|-8-8---8---8-8-|---8-----|-8-----8---8-8-|---8-8-8-| 
D|-----8---8-----|-8---8-8-|---8-8---8-----|-8-------|

G|-----------------|---------|----------------|
D|-----------------|---------|----------------|
A|-8-----8-8---8-8-|---8-8-8-|-8-----8-8---8--| 
D|---8-8-----8-----|-8-------|---8-8-----8---8|


3rd Chorus
(Pick up notes)
G|-----------|
D|-----------|
A|-------10\-|
D|-8--8------|
	Only Bending		(Play 3 Times)
G|--------------------|--------------------------------|
D|-10-10-10--9--9--9--|-8--8--8--7-10/12--12--12--12---|
A|--8--8--8--7--7--7--|-6--6--6--5--8/10--10--10--10---| 
D|--------------------|--------------------------------|

G|--------------------|------------------------|
D|-10-10-10--9--9--9--|-8--8--8--7--------8/10-|
A|--8--8--8--7--7--7--|-6--6--6--5--8/10-------| 
D|--------------------|------------------------|



Outro
G|--------------------|-------------------|-------|
D|------------8/10----|--------------8/10-|-------|
A|-------8/10---------|---------8/10------|-------|
D|-8-8\---------------|-8-8-8-6-----------|-8--8\-|














Comments