Soundgarden - Pretty Noose Chords & Tabs

 

Pretty Noose Chords & Tabs

Soundgarden Chords & Tabs

Version: 1 Type: Tab 0 ratings
1 star 2 stars 3 stars 4 stars 5 stars
comments

Pretty Noose Tab

   
#----------------------------------PLEASE NOTE---------------------------------#
#This file is the author's own work and represents their interpretation of the #
#song. You may only use this file for private study, scholarship, or research. #
#------------------------------------------------------------------------------##
#

From: AnTiStRaT@aol.com
Date: Sun, 19 May 1996 22:10:42 -0400


"Pretty Noose"
       by SouNDGaRDeN

someone tell me what's up wit Chris Cornell's new hair...

Tune guitars to:

1st- e
2nd- G
3rd- G
4th- C
5th- G
6th- C

This is probably wrong but it sounds kewl anywayz...
[ Tab from: http://www.guitartabs.cc/tabs/s/soundgarden/pretty_noose_tab.html ]
- --- - -  -    - -=Intro=- -    -  - - --- -
  
G1 (Kim)    w/wah     ~~~           slow bend
e--------------------------------------------|
G--------------------------------------------|
G-----0--3^4---------------0--3^4-------5^7--|
C--0----------5-4------------------4-5-------|
G------------------3-3/5---------------------|
C--------------------------------------------|

G1 (Kim)                            slow bend
e--------------------------------------------|
G---------------------------------------5----|
G-----0--3^4---------------0--3^4-------5^7--|
C--0----------5-4------------------4-5-------|
G------------------3-3/5---------------------|
C--------------------------------------------|

- --- - -  -    - -=Verse=- -    -  - - --- -
Enter Band...
G1&2 w/ heavy dist.                      slow bend
e--7--7-7--9--10--10-10-\3--3-3--4--5--5-------------|
G--7--7-7--9--10--10-10-\3--3-3--4--5--5-7------7p0--|
G--7--7-7--9--10--10-10-\3--3-3--4--5--5-6^7----7p0--|
Comments